Home » Tabulatury i chwyty » G » Green Day » All The Time

Green Day - All The Time Tab


Intro

E|-----------------|            E|---------------------|
H|-----------------|            H|---------------------|
G|---9--9---7------|   x9       G|---9-9-9-9-9-9-9-9---|
D|---9--9---7--7---|            D|---9-9-9-9-9-9-9-9---|
A|---7--7---5--7---|            A|---7-7-7-7-7-7-7-7---|
E|-------------5---|            E|---------------------|


Zwrotka

E|------------------------------------|
H|------------------------------------|
G|---------------------------7-7-7-7--|
D|---6/7-7-7-7-7-7-7--5-5-5--7-7-7-7--|
A|---6/7-7-7-7-7-7-7--5-5-5--5-5-5-5--|
E|---4/5-5-5-5-5-5-5--3-3-3-----------|




E|---------------------------------------------|
H|---------------------------------------------|
G|--------6-6--7-7--6-6-------4-4--5-5--4-4----|
D|---7-7--6-6--7-7--6-6--5-5--4-4--5-5--4-4----|
A|---7-7--4-4--5-5--4-4--5-5--2-2--3-3--2-2----|
E|---5-5-----------------3-3-------------------|



Zakończenie

E|-----------------|            E|------------|
H|-----------------|            H|------------|
G|---9--9---7------|   x9       G|------------|
D|---9--9---7--7---|            D|---6-7--7---|
A|---7--7---5--7---|            A|---6-7--7---|
E|-------------5---|            E|---4/5--5---|

Taby i akordy do All The Time - Green Day . Znajdź najlepsze gitarowe chwyty do All The Time. Zagraj Green Day All The Time chords.

Skomentuj Green Day - All The Time Tab
  • (will not be published)