Home » Tabulatury i chwyty » G » Green Day » American Idiot

Green Day - American Idiot Tab


Zwrotka

E|----------------------------|
H|----------------------------|
G|---------6-6-6-------6------|
D|--6-6-6--6-6-6--4-4--6-6-4--|
A|--6-6-6--4-4-4--4-4--4-6-4--|
E|--4-4-4---------2-2----4-2--|



Refren

E|---------------------------------------------------------------------|
H|---------------------------------------------------------------------|
G|---6-6-6-6-6-6-6-6-----------------8-8-8-8-8-8-8-8-------------------|
D|---6-6-6-6-6-6-6-6-6-6-6-6-6-6-6-6-8-8-8-8-8-8-8-8-6-6-6-6-6-6-6-6---|
A|---4-4-4-4-4-4-4-4-6-6-6-6-6-6-6-6-6-6-6-6-6-6-6-6-6-6-6-6-6-6-6-6---|
E|-------------------4-4-4-4-4-4-4-4-----------------4-4-4-4-4-4-4-4---|

E|-----------------------------------------------------|
H|-----------------------------------------------------|
G|---6-6-6-6-6-6-6-6-----------------8-8-8-8-8-8-8-8---|
D|---6-6-6-6-6-6-6-6-6-6-6-6-6-6-6-6-8-8-8-8-8-8-8-8---|
A|---4-4-4-4-4-4-4-4-6-6-6-6-6-6-6-6-6-6-6-6-6-6-6-6---|
E|-------------------4-4-4-4-4-4-4-4-------------------|

Taby i akordy do American Idiot - Green Day . Znajdź najlepsze gitarowe chwyty do American Idiot. Zagraj Green Day American Idiot chords.

Skomentuj Green Day - American Idiot Tab
  • (will not be published)