Home » Tabulatury i chwyty » G » Green Day » Burnout

Green Day - Burnout Tab


E|-------------------------------------------------|
H|-------------------------------------------------|
G|------------5-5-5-5-----------5-5----------------|
D|---5-5-5-5--5-5-5-5--5-5-5-5--5-5-3-3--5-5-5-5---|
A|---5-5-5-5--3-3-3-3--5-5-5-5--3-3-3-3--5-5-5-5---|
E|---3-3-3-3-----------3-3-3-3------1-1--3-3-3-3---|

 E|----------------------------------|
 H|----------------------------------|
 G|----------------7-7-7-7-7-7-7-7---|
 D|---3-3-3-3-3-3--7-7-7-7-7-7-7-7---|
 A|---3-3-3-3-3-3--5-5-5-5-5-5-5-5---|
 E|---1-1-1-1-1-1--------------------|

Taby i akordy do Burnout - Green Day . Znajdź najlepsze gitarowe chwyty do Burnout. Zagraj Green Day Burnout chords.

Skomentuj Green Day - Burnout Tab
  • (will not be published)