Home » Tabulatury i chwyty » G » Green Day » Holiday

Green Day - Holiday Tab




Intro:

e|------------------------------------|
B|------------------------------------|
G|--10-10-\--6-6-/-13-13-\-8-8--------|
D|--10-10-\--6-6-/-13-13-\-8-8--------|
A|---8--8-\--4-4-/-11-11-\-6-6--------|
E|------------------------------------|


Refren:

e|------------------------------------|
B|------------------------------------|
G|---------6-6-6-6---------8-8-8-8----|
D|-3-3-3-3-6-6-6-6-6-6-6-6-8-8-8-8----|
A|-3-3-3-3-4-4-4-4-6-6-6-6-6-6-6-6----|
E|-1-1-1-1---------4-4-4-4------------|


Partia po refrenie:

e|------------------------------------|
B|------------------------------------|
G|---------6---8-5--------------------|
D|-3-3-6-6-6-8-8-5--------------------|
A|-3-3-6-6-4-8-6-3--------------------|
E|-1-1-4-4---6------------------------|

Taby i akordy do Holiday - Green Day . Znajdź najlepsze gitarowe chwyty do Holiday. Zagraj Green Day Holiday chords.

Skomentuj Green Day - Holiday Tab
  • (will not be published)