Home » Tabulatury i chwyty » G » Guns N'Roses » Welcome To The Jungle

Guns N'Roses - Welcome To The Jungle Tab


Intro:

D#|-------------------------------------------------|
A#|-------------------------------------------------|
F#|-4-----4--2-----2--------------------------------|    Gitara 1
C#|-------------------4-----4--2-----2--0-----------|
G#|-------------------------------------------2-----|
D#|-------------------------------------------------|


H5  A5  G5  E5
                             - Gitara 2
H5  A5  E5   D5 A5


D#|-------0-----|---------------------------------|---------------------------|
A#|-3-----0-----|---------------------------------|---------------------------|
F#|-2-----2-----|-4---4---4---4---4---4---4---4---|-4---4---4---4---4----4----|
C#|-0-----2-----|-4---4---4---4---4---4---4---4---|-4---4---4---4---4----4----|
G#|-------0-----|-2---2---2---2---2---2---2---2---|-2---2---2---2---2----2----|
D#|-------------|---------------------------------|---------------------------|



D#|------------------------------------|
A#|------------------------------------|
F#|---2-----------------0--------------|
C#|---2---------2--2----0--------------|
G#|---0---------0--0---------------0---|
D#|-------3b----------------3---2------|

D#|--------------------------------|
A#|--------------------------------|
F#|---9----7----9--7---------------|
C#|---9----7----9--7---------------|
G#|---7----5----7--5---5---4---2---|
D#|--------------------------------|


Refren:

D#|---------|---------|
A#|---------|---------|
F#|----5----|----7----|
C#|----5----|----7----|
G#|----3----|----5----|
D#|---------|---------|

                                  <---------- x2 ----------->
D#|------------------------------|---------------------------|-------------------------|
A#|------------------------------|---------------------------|-------------------------|
F#|-9---9------------------------|---------------------------|-------------------------|
C#|-9---9------------------------|---------------------------|-------------------------|
G#|-7---7---5--------------------|-7--7--5-------------------|-7--7--5-----------------|
D#|-------------6-6-6-5-5--3--0--|----------6-6-6-5-5--3--0--|----------6--6--5--3--4--|



Taby i akordy do Welcome To The Jungle - Guns N'Roses . Znajdź najlepsze gitarowe chwyty do Welcome To The Jungle. Zagraj Guns N'Roses Welcome To The Jungle chords.

Skomentuj Guns N'Roses - Welcome To The Jungle Tab
  • (will not be published)