Home » Tabulatury i chwyty » H » Hey » Misie

Hey - Misie Tab Chords

Zwrotka/intro:

E|-----------------------------------------|
H|-----------------------------------------|
G|-----------------------------------------|
D|-----5/7------7----0h2p0------2-----5----|
A|----------0---------------0--------------|
E|-----------------------------------------|

 


Refren:

      F         G      C                                           x2
E|---------|----------------||---------------------------------------||
H|---------|----------------||---------------------------------------||
G|---------|----------------||---------------------------------------||
D|----3----|----5------10---||-----10/7---7--7-----7-----------------||
A|----3----|----5------10---||-----10/7---7--7-----7----------5h7----||
E|----1----|----3------8----||------8/5---5--5-----5-----5h8---------||

Taby i akordy do Misie - Hey . Znajdź najlepsze gitarowe chwyty do Misie. Zagraj Hey Misie chords.

Skomentuj Hey - Misie Tab Chords
  • (will not be published)