Home » Tabulatury i chwyty » H » Human » Polski

Human - Polski Tab


Intro:
                                   x3
E|------------------------------------|---------------|
H|------------------------------------|---------------|
G|-------7-5----2---------------------|-------7-5-----|
D|-------7-5----2--------2v-----5h7---|-------7-5-----|
A|---0-0----(0)-----0-0------0--------|---0-0---------|
E|------------------------------------|---------------|
  

Zwrotka/refren:

E|-------------------------|
H|-------------------------|
G|---2---------------------|
D|---2----4-5--4-5--4-2----|
A|---0----5-5--5-5--5-0----|
E|-------------------------|


Taby i akordy do Polski - Human . Znajdź najlepsze gitarowe chwyty do Polski. Zagraj Human Polski chords.

Zobacz inne opracowania Human
    Skomentuj Human - Polski Tab
    • (will not be published)