Home » Tabulatury i chwyty » H » Hunter » Kiedy Umieram

Hunter - Kiedy Umieram Tab


Zwrotka:

D#|-----------------------|------------------------------|------------------------|
A#|-----------------------|------------------------------|------------------------|
F#|-----------------------|--------------0---------------|------------------------|
C#|-5--7--5---4--5--4-----|----------4-------4-----------|-5--7--5---4--5--4------|
G#|-7---------5--------5--|------2---------------2-------|-7---------5--------5---|
D#|-0---------0-----------|-0------------------------0---|-0---------0------------|


D#|------------------------|-------------------------|-----------------------------|
A#|------------------------|-------------------------|---------------------0-------|
F#|------------------------|-------------------------|-------------0-----------0---|
C#|--------------------4---|--5--7--5---4--5--4------|---------4-------4-----------|
G#|-5--7-------7---7-------|--7---------5--------5---|-----2-----------------------|
D#|--------0---------------|--0---------0------------|-0---------------------------|



Refren:

D#|-------------------------------|--------|
A#|-------------------------------|--------|
F#|-------------------------------|--------|
C#|-------------------------------|--------|
G#|--5----4---2---4---5---4---2---|----2---|
D#|--3----2---0---2---3---2---0---|----0---|


                       Umieram gdy...
D#|-------------------|-------------------|-------------------------|
A#|-------------------|-------------------|-------------------------|
F#|-------------------|-------------------|-------------------------|
C#|-------------------|--1--2---2--2--2---|--2--4---4--4--4---4--4--|
G#|--2-2-2-2-2-2-2-2--|--2--3---3--3--3---|--3--5---5--5--5---5--5--|
D#|--0-0-0-0-0-0-0-0--|--2--3---3--3--3---|--3--5---5--5--5---5--0--|

D#|--------------------|-------------|
A#|--------------------|-------------|
F#|--------------------|-------------|
C#|--------------------|-------------|
G#|-----2--2--2--2-----|----2--2--2--|
D#|--2--0--0--0--0--0--|-2--0--0--0--|

Taby i akordy do Kiedy Umieram - Hunter . Znajdź najlepsze gitarowe chwyty do Kiedy Umieram. Zagraj Hunter Kiedy Umieram chords.

Zobacz inne opracowania Hunter
    Skomentuj Hunter - Kiedy Umieram Tab
    • (will not be published)