Home » Tabulatury i chwyty » I » Illusion » Na Luzie

Illusion - Na Luzie Tab


dropped D


Zwrotka/intro:

E|---------------------------------------------|
H|---------------------------------------------|
G|---------------------------------------------|
D|--------5----------------5-------------------|
A|----0---3--0--3--5---0---3--0--3--5--5--3----|
D|----0------0--3--5---0------0--3--5--5--3----|



Refren:

                                          na luzie...
E|----------------------------------------------------|
H|----------------------------------------------------|
G|----------------------------------------------------|
D|----------------------------------------------------|
A|---------5--------3--------5--------3----3--2--1----|
D|---0--3-----0--5-----0--3-----0--5-------3--2--1----|


E|-----------------------------------------|
H|-----------------------------------------|
G|-----------------------------------------|
D|-----------------------------------------|
A|---0--3--2--0--3-----0--3--2--0--3--3----|
D|---0--3--2--0--3-----0--3--2--0--3--3----|

Taby i akordy do Na Luzie - Illusion . Znajdź najlepsze gitarowe chwyty do Na Luzie. Zagraj Illusion Na Luzie chords.

Zobacz inne opracowania Illusion
Skomentuj Illusion - Na Luzie Tab
  • (will not be published)