Illusion - Nóż Tab


D#|-------------------------------------|------------------------------------|
A#|-------------------------------------|------------------------------------|
F#|-------------------------------------|--------------------------------5---|
C#|-------------------------------------|--------------------------------5---|
G#|-0--------------0-----------------0--|-0--------------0---------------3---|
C#|-0---0---0---0--0---0--0---0---0--0--|-0---0---0---0--0---0---0--0--------|


D#|--------------------------------------------------------------|
A#|--------------------------------------------------------------|
F#|--------------------------------------------------------------|
C#|--------------------------------------------------------------|
G#|----8---7---0---3---0-----0-----5---3---0---3---0-------0-----|
C#|----8---7---0---3---0-----0-----5---3---0---3---0-------0-----|

Taby i akordy do Nóż - Illusion . Znajdź najlepsze gitarowe chwyty do Nóż. Zagraj Illusion Nóż chords.

Zobacz inne opracowania Illusion
Skomentuj Illusion - Nóż Tab
  • (will not be published)