Home » Tabulatury i chwyty » I » Iron Maiden » Blood Brothers

Iron Maiden - Blood Brothers Tab Chords


Intro:

E|------------8----7----7--------------------|
H|-------------------10------10-8-10--8--7---|
G|---9----7-9--------------------------------|
D|-------------------------------------------|
A|-------------------------------------------|
E|-------------------------------------------|



Zwrotka:

     E5          G5         C5         D5
E|------------------------------------------------|
H|------------------------------------------------|
G|------------------------------------------------|
D|-----9---9-----------------5---5------7--7------|
A|---7---7---7----5---5----3---3---3---5--5--5----|
E|--------------3---3---3-------------------------|

     E5         G5         C5         D5
E|---------------------------------------------|
H|---------------------------------------------|
G|---------------------------------------------|
D|---2-2--2-2--------------5--5-5-5---7-7-7----|
A|---2-2--2-2---5--5-5-5---3--3-3-3---5-5-5----|
E|---0-0--0-0---3--3-3-3-----------------------|


Refren:

E5  C5  G5  D5


Taby i akordy do Blood Brothers - Iron Maiden . Znajdź najlepsze gitarowe chwyty do Blood Brothers. Zagraj Iron Maiden Blood Brothers chords.

Skomentuj Iron Maiden - Blood Brothers Tab Chords
  • (will not be published)