Home » Tabulatury i chwyty » I » Iron Maiden » Chains Of Misery

Iron Maiden - Chains Of Misery Tab

Intro:
                           x3
E|---------------------------|
H|---------------------------|
G|---------------------------|
D|---------------------------|
A|---------------------------|
E|--0--0--0--0--0--0--0--0---|


E|--------------------------------------------------------------|
H|--------------------------------------------------------------|
G|--------------------------------------------------------------|
D|----------5----5------9----7--------7----7--------------------|
A|----------2----3------7----5--------5----4--------3---0---2---|
E|---0---0-------------------------0-------------0--------------|

 

Zwrotka:

E|-------------------------------------|
B|-------------------------------------|
G|-------------------------------------|
D|----9--------9--7------7--7--7--5----|
A|----7--------7--5------4--4--4--3----|
E|-------0--0--------------------------|

 

Git.1

E|---------2---------------2-----------------3----------------3---------|
H|----2--3---3--2-----3--2---3--2-------3--5---5--3------3--5---5--3----|
G|--4---------------4----------------5----------------5-----------------|
D|----------------------------------------------------------------------|
A|----------------------------------------------------------------------|
E|----------------------------------------------------------------------|

E|---------3----------------3-----------------5----------------5--------|
H|----3--5---5--3------3--5---5--3-------5--7---7--5------5--7---7------|
G|--6---------------6-----------------7-----------------8----------8----|
D|----------------------------------------------------------------------|
A|----------------------------------------------------------------------|
E|----------------------------------------------------------------------|


Git.2

E|-------------------------------------------------------------|
H|-------------------------------------------------------------|
G|-------------------------------------------------------------|
D|--5--5--5--5--5--5--5--5-------5--5--5--5--5--5--5--5--5-----|
A|--2--2--2--2--2--2--2--2-------3--3--3--3--3--3--3--3--3-----|
E|-------------------------------------------------------------|


E|----------------------------------------------------------------------|
B|----------------------------------------------------------------------|
G|----------------------------------------------------------------------|
D|--7--7--7--7--7--7--7--7--------7--7--7--7--7--7---9--9--9--9--9--9---|
A|--4--4--4--4--4--4--4--4--------5--5--5--5--5--5---6--6--6--6--6--6---|
E|----------------------------------------------------------------------|
 


Refren:

E|--------------------------------------------------------------|
H|--------------------------------------------------------------|
G|--------------------------------------------------------------|
D|----------5----5------9----7--------7----7--------------------|
A|----------2----3------7----5--------5----4--------3---0---2---|
E|---0---0-------------------------0-------------0--------------|

E|---------------------------3---------------------|
H|---------------------------3---------------------|
G|---------------------------0---------------------|
D|----------5----5------9----0--------7------------|
A|----------2----3------7----2--------5---7--------|
E|---0---0-------------------3------------5---0----|


Taby i akordy do Chains Of Misery - Iron Maiden . Znajdź najlepsze gitarowe chwyty do Chains Of Misery. Zagraj Iron Maiden Chains Of Misery chords.

Skomentuj Iron Maiden - Chains Of Misery Tab
  • (will not be published)