Home » Tabulatury i chwyty » I » Iron Maiden » Strange World

Iron Maiden - Strange World Tab Chords

| Em | G | D | C |

 


E|---------------14-15-17---15--17p15-14-15p14----------------------------------|
H|--17-15---17-----------------------------------15---17---17b--15--17----------|
G|--------------------------------------------------------------------------12--|
D|-----------------------------------------------------------------------14-----|
A|------------------------------------------------------------------------------|
E|------------------------------------------------------------------------------|


E|----------------------------------------------------12----14--14h15-----------|
H|-----------15--------------12--13--15--12--13--15-----------------------------|
G|---14b--------14b---14--------------------------------------------------------|
D|------------------------------------------------------------------------------|
A|------------------------------------------------------------------------------|
E|------------------------------------------------------------------------------|


E|--14--------------------------------------------------------------------------|
H|------15--17-----------------7--8p7-----7--8--10-----8--10p8-7---8p7----------|
G|--------------------7--9-------------9---------------------------------9--7---|
D|-----------------9------------------------------------------------------------|
A|------------------------------------------------------------------------------|
E|------------------------------------------------------------------------------|


E|--------------------------------------14--15---------14--15------14--15-------|
H|----------------------------------17-------------17----------17---------------|
G|---9b---9b--9b--9b--9b---7--9-------------------------------------------------|
D|------------------------------------------------------------------------------|
A|------------------------------------------------------------------------------|
E|------------------------------------------------------------------------------|


E|---17--14--15------14---------------------------------|
H|---------------17------15--17--------------15---17----|
G|-------------------------------17--16--17-------------|
D|------------------------------------------------------|
A|------------------------------------------------------|
E|------------------------------------------------------|



Taby i akordy do Strange World - Iron Maiden . Znajdź najlepsze gitarowe chwyty do Strange World. Zagraj Iron Maiden Strange World chords.

Skomentuj Iron Maiden - Strange World Tab Chords
  • (will not be published)