Home » Tabulatury i chwyty » I » Iron Maiden » Weekend Warrior

Iron Maiden - Weekend Warrior Tab Chords

Intro/zwrotka:

E|----------------------------------|---------------|
H|----------------------------------|---------------|
G|------------0--------------0------|---------2-----|
D|--------2--------------0----------|-----0---------|
A|----0-----------------------------|---------------|
E|---------------2--------------3---|---------------|

 

Zwrotka:

      A5       D5/F#               G5           C5
E|---------------------------|---------------------------|
H|-------------3---3---------|---------------------------|
G|----2--------2---2---------|------------------5---5----|
D|----2--------0---0---------|-----5---5--------5---5----|
A|----0----------------------|-----5---5--------3---3----|
E|-------------2---2---------|-----3---3-----------------|


 

Refren:

E|----------------------|------|----------------------|-------------------------------|
H|----6-----3---3-------|------|----6-----3---3-------|-------------------------------|
G|----5-----2---2---2---|------|----5-----2---2-------|-------------------------------|
D|----3-----0---0---2---|------|----3-----0---0---5---|---5-----------5---5-----------|
A|------------------0---|------|------------------3---|---3---2---0---3---3---2---0---|
E|----------------------|------|----------------------|-------------------------------|

E|----------------------|------|----------------------|------|
H|----6-----3---3-------|------|----6-----3---3-------|------|
G|----5-----2---2---2---|------|----5-----2---2---2---|------|
D|----3-----0---0---2---|------|----3-----0---0---2---|------|
A|------------------0---|------|------------------0---|------|
E|----------------------|------|----------------------|------|

Taby i akordy do Weekend Warrior - Iron Maiden . Znajdź najlepsze gitarowe chwyty do Weekend Warrior. Zagraj Iron Maiden Weekend Warrior chords.

Skomentuj Iron Maiden - Weekend Warrior Tab Chords
  • (will not be published)