Home » Tabulatury i chwyty » J » Jet » Are You Gonna Be My Girl

Jet - Are You Gonna Be My Girl

Intro:

E|--------------------------------------------|
H|-----------7b---7b--------------------------|
G|-------5---7b---7b------5-------------------|
D|----7----------------------7----7----5------|
A|--------------------------------------------|
E|--------------------------------------------|

E|-------------------------------------------------|
H|-------------------------------------------------|
G|-----------------------------------------5-------|
D|----7---7---7-----7----7----------7--------------|
A|----0---0---0-----0----0-------0------0-----0----|
E|-------------------------------------------------|

E|-------------------------------------------------|
H|-------------------------------------------------|
G|-------------------------------------------------|
D|----7---7---7-----7----7----------7------5-------|
A|----0---0---0-----0----0-------0------0-----0----|
E|-------------------------------------------------|

E|-------------------------------------------------|
H|-------------------------------------------------|
G|----------------------------------7------5-------|
D|----7---7---7-----7----7-------------------------|
A|----0---0---0-----0----0-------0------0-----0----|
E|-------------------------------------------------|

E|--------------------------------------------|
H|-----------7b---7b--------------------------|
G|-------5---7b---7b------5-------------------|
D|----7----------------------7----7----5------|
A|--------------------------------------------|
E|--------------------------------------------|

 

Zwrotka:

E|-------------------------------------------------|-------------|
H|-------------------------------------------------|-------------|
G|----------------------------------7------5-------|-------------|       x3
D|----7---7---7-----7----7-------------------------|------7------|
A|----0---0---0-----0----0-------0------0-----0----|------0------|
E|-------------------------------------------------|-------------|

E|--------------------------------------------|
H|-----------7b---7b--------------------------|
G|-------5---7b---7b------5-------------------|
D|----7----------------------7----7----5------|
A|--------------------------------------------|
E|--------------------------------------------|

 

Refren:

        D                    C     G
E|----------------------------------------|
H|----------------------------------------|
G|---------------------------------12-----|     x4
D|------12----12----12-------10----12-----|
A|------12----12----12-------10----10-----|
E|------10----10----10-------8------------|


| A | C | D | A |    x2

| E | G |

 

Solo:

E|--------------10---------------12------------------------12------------------|
H|----12b---10---------12b---10----------12b---10----------12-----10-----10----|
G|--------------------------------------------------9-----------------12-------|    
D|-----------------------------------------------------------------------------|
A|-----------------------------------------------------------------------------|
E|-----------------------------------------------------------------------------|


E|-------------------------------------------------|
H|-------------------------------------------------|
G|-------------------------------------------------|    Gitara II
D|----7---7---7-----7----7----------7------5-------|  
A|----0---0---0-----0----0-------0------0-----0----|
E|-------------------------------------------------|


Taby i akordy do Are You Gonna Be My Girl - Jet . Znajdź najlepsze gitarowe chwyty do Are You Gonna Be My Girl. Zagraj Jet Are You Gonna Be My Girl chords.

Zobacz inne opracowania Jet
    Skomentuj Jet - Are You Gonna Be My Girl
    • (will not be published)