Home » Tabulatury i chwyty » J » Jimi Hendrix » Little Wing

Jimi Hendrix - Little Wing


| e | G | a | e e7 | h A# | a C | G F | C D | D |

 

Video Instruktaż

 

Intro:

|-------x-12\-|------------------------|------3h5p3-3---------------------|
|-------x-12\-|----x-x--------------5\-|------3-----3---3-(3)-3-3---------|
|-------x--x--|----x-x------0-----5-5\-|----0---------0-4h=5--5-4-5-4-----|
|---------12--|----x-x--------5---5-7\-|------------------------------5---|
|----------x--|----x-x--0h2---5h7------|----------------------------------|
|---------12\-|-0----------------------|-/3-----------------------------3-|


|------------------------------------|----------------------------------|
|------------5---5-------------------|-----8h10p8-----------------------|
|--------5---5h7-5-------------------|-----7------7--------7-7---7--7-7-|
|------------------5h7-5---5---------|--------------9----7-7-7h9-7--7-7-|
|----5-7---7-----------5h7-----------|---7----------7-7-10---------10-7-|
|-5--------------------------5h7-(7)-|-0--------------------------------|


|-----9-10-9----7-7-------------|--------------------------|
|-----7-10-7-7h10-7-7-----------|--------------------------|
|---7----7-7--------7-------7---|---5-5-5-5-----5-5-5------|
|---9---------------9-------8s7-|---7-9-7-5-5-5-5-7-5------|
|-------------------------8-----|-----------8-7------------|
|-7-------------------7-6-------|-5-------------------5h7\-|


                               2/4                 4/4
|-----5s7-5---5s1-------------|-------------------|---------------------------|------12\-|
|-----3s5-3---3-3-1---1-------|---------1-3p1---0-|-------------7---7-7-------|-------x--|
|---0---------0-0-0---0---0---|-----2-2---2-------|-----------7-7---7-7--7-7--|-7-----x--|
|---5-5s7-5---5s3-----3---3---|-----2-2-----------|---7---7---7-7h9-7-7--7-7--|-7-----x--|
|---------------------3---3---|-0h3-----------3---|-5---5---5-----------10-7--|-9-----x--|
|-3---------0-------1---1---1-|-------------------|---------------------------|------12\-|



Taby i akordy do Little Wing - Jimi Hendrix . Znajdź najlepsze gitarowe chwyty do Little Wing. Zagraj Jimi Hendrix Little Wing chords.

Skomentuj Jimi Hendrix - Little Wing
  • (will not be published)