Home » Tabulatury i chwyty » K » Kabanos » Jagoda

Kabanos - Jagoda Tab


Intro:

E|----------------------------|---------------------------|-----------------------------|
B|----------------------------|---------------------------|-----------------------------|
G|----------------------------|---------------------------|-----------------------------|
D|----------------------------|---------------------------|-----------------------------|
A|------------------------2---|-3--0-0-0--0-0-0--3--2--0--|-2----------------0--2-------|
E|-0--0-0-0--0-0-0--2--3------|---------------------------|----3-3-3--3-3-3---------3---|

E|---------------------------|----------------------------|---------------------------|
B|---------------------------|----------------------------|---------------------------|
G|---------------------------|----------------------------|---------------------------|
D|---------------------------|----------------------------|---------------------------|
A|-0--5-5-5--5-5-5--3--2--0--|------------------------2---|-3--0-0-0--0-0-0--3--2--0--|
E|---------------------------|-3--0-0-0--0-0-0--2--3------|---------------------------|

E|----------------------------|---------------------------|----------------------------|
B|----------------------------|---------------------------|----------------------------|
G|----------------------------|---------------------------|----------------------------|
D|----------------------------|---------------------------|----9-9-9------------10-9---|
A|-2-----------------0--2-----|-0--5-5-5--5-5-5--3--2--0--|-7---------10-7--10---------|
E|----3-3-3--3-3-3---------3--|---------------------------|----------------------------|

E|---------------------------------|---------|-----------------------------------|
B|---------------------------------|---------|-----------------------------------|
G|---------------------------------|---------|-----------------------------------|
D|-7-----------9---7-----------9---|-----7---|-----9--9--9---------------10--9---|
A|-----9---10----------9---10------|-9-------|-7-------------10--7---10----------|
E|---------------------------------|---------|-----------------------------------|

E|---------------------------|---------------------------|---------|------|-0----|
B|---------------------------|---------------------------|---------|------|-0----|
G|---------------------------|---------------------------|---------|------|------|
D|-7---------9--7---------9--|----7-----5-----4------2---|-----1---|-2----|------|
A|----9--10--------9--10-----|-9-----7-----5-----3-------|-2-------|------|------|
E|---------------------------|---------------------------|---------|------|------|


Zwrotka:

E|-----|-----|---------|---------|-------------------|------------------------|
B|-----|-----|---------|---------|-------------------|------------------------|
G|-----|-----|---------|---------|-------------------|------------------------|
D|-2---|-2---|-5---4---|-5-------|-2-----2-----------|-------------------2----|
A|-2---|-2---|-3---2---|-3---6---|-2-----2--------2--|-1--0--------2-----2----|
E|-0---|-0---|-3---2---|-3-------|-0-----0-----3--0--|-------3--0--0-----0----|


E|-------|-------|----------------------------------------|-----------------------------------|
B|-------|-------|----------------------------------------|-----------------------------------|
G|-------|-------|-9--9--9--9--x--12-12-9--12-12-12-12-12-|-----------9--x-------9------------|
D|-5--4--|-5--7--|-9--9--9--9--x--12-12-9--12-12-12-12-12-|-12-12-12--9--x--9-9--9-9-9-9-9-9--|
A|-3--2--|-3--5--|-7--7--7--7--x--10-10-7--10-10-10-10-10-|-12-12-12--7--x--9-9--7-9-9-9-9-9--|
E|-3--2--|-3--5--|----------------------------------------|-10-10-10--------7-7----7-7-7-7-7--|


E|-------------------------------------------|-----------------------------------|
B|-------------------------------------------|-----------------------------------|
G|-------------9--x--------9-----------------|-------------9--x------------------|
D|-10--10--10--9--x--9--9--9--9--9--9--9--9--|-7---7---7---9--x----------5-------|
A|-10--10--10--7--x--9--9--7--9--9--9--9--9--|-7---7---7---7--x------6-------6---|
E|-8---8---8---------7--7-----7--7--7--7--7--|-5---5---5---------7---------------|


E|----------------------------------------|-------------------------------------------|
B|----------------------------------------|-------------------------------------------|
G|-9--9--9--9--x--12-12-9--12-12-12-12-12-|-------------9--x--------9-----------------|
D|-9--9--9--9--x--12-12-9--12-12-12-12-12-|-12--12--12--9--x--9--9--9--9--9--9--9--9--|
A|-7--7--7--7--x--10-10-7--10-10-10-10-10-|-12--12--12--7--x--9--9--7--9--9--9--9--9--|
E|----------------------------------------|-10--10--10--------7--7-----7--7--7--7--7--|


E|-------------------------------------------|-----------------------------------|
B|-------------------------------------------|-----------------------------------|
G|-------------9--x--------9-----------------|-------------9--x------------------|
D|-10--10--10--9--x--9--9--9--9--9--9--9--9--|-7---7---7---9--x--5---5---4---4---|
A|-10--10--10--7--x--9--9--7--9--9--9--9--9--|-7---7---7---7--x--5---5---4---4---|
E|-8---8---8---------7--7-----7--7--7--7--7--|-5---5---5---------3---3---2---2---|


E|---------------------------------------|
B|---------------------------------------|
G|---------------------------------------|
D|-2---2---2---------2---2---------------|
A|-2---2---2---2--0--2---2---2--0--------|
E|-0---0---0---------0---0---------3--2--|


Refren:
 
                                        x2
E|-----------------------------------------|-----------------------------------------|
B|-----------------------------------------|-----------------------------------------|
G|-5---5---5--5--5--5----------------------|-4---4---4--4--4--4----------------------|
D|-5---5---5--5--5--5--5---5---5--5--5--5--|-4---4---4--4--4--4--2---2---2--2--2--2--|
A|-3---3---3--3--3--3--5---5---5--5--5--5--|-2---2---2--2--2--2--2---2---2--2--2--2--|
E|---------------------3---3---3--3--3--3--|---------------------0---0---0--0--0--0--|


E|-----------------------------------------|-----------------------------------------|
B|-----------------------------------------|-----------------------------------------|
G|-2---2---2--2--2--2----------------------|-4---4---4--4--4--4----------------------|
D|-2---2---2--2--2--2--5---5---5--5--5--5--|-4---4---4--4--4--4--2---2---2--2--2--2--|
A|-0---0---0--0--0--0--5---5---5--5--5--5--|-2---2---2--2--2--2--2---2---2--2--2--2--|
E|---------------------3---3---3--3--3--3--|---------------------0---0---0--0--0--0--|

E|---------------------------------------|-----------------------------------------|
B|---------------------------------------|-----------------------------------------|
G|---------------------------------------|-5---5---5--5--5--5----------------------|
D|-2---2---2---------2---2---------------|-5---5---5--5--5--5--5---5---5--5--5--5--|
A|-2---2---2---2--0--2---2---2--0--------|-3---3---3--3--3--3--5---5---5--5--5--5--|
E|-0---0---0---------0---0---------3--2--|---------------------3---3---3--3--3--3--|

E|-----------------------------------------|-----------------------------------------|
B|-----------------------------------------|-----------------------------------------|
G|-5---5---5--5--5--5----------------------|-4---4---4--4--4--4----------------------|
D|-5---5---5--5--5--5--5---5---5--5--5--5--|-4---4---4--4--4--4--2---2---2--2--2--2--|
A|-3---3---3--3--3--3--5---5---5--5--5--5--|-2---2---2--2--2--2--2---2---2--2--2--2--|
E|---------------------3---3---3--3--3--3--|---------------------0---0---0--0--0--0--|


E|-----------------------------------------|-----------------------------------------|
B|-----------------------------------------|-----------------------------------------|
G|-2---2---2--2--2--2----------------------|-4---4---4--4--4--4----------------------|
D|-2---2---2--2--2--2--5---5---5--5--5--5--|-4---4---4--4--4--4--2---2---2--2--2--2--|
A|-0---0---0--0--0--0--5---5---5--5--5--5--|-2---2---2--2--2--2--2---2---2--2--2--2--|
E|---------------------3---3---3--3--3--3--|---------------------0---0---0--0--0--0--|



Przygrywka:

E|----------------------------|---------------------------|-----------------------------|
B|----------------------------|---------------------------|-----------------------------|
G|----------------------------|---------------------------|-----------------------------|
D|----------------------------|---------------------------|-----------------------------|
A|------------------------2---|-3--0-0-0--0-0-0--3--2--0--|-2----------------0--2-------|
E|-0--0-0-0--0-0-0--2--3------|---------------------------|----3-3-3--3-3-3---------3---|

E|---------------------------|----------------------------|---------------------------|
B|---------------------------|----------------------------|---------------------------|
G|---------------------------|----------------------------|---------------------------|
D|---------------------------|----------------------------|---------------------------|
A|-0--5-5-5--5-5-5--3--2--0--|------------------------2---|-3--0-0-0--0-0-0--3--2--0--|
E|---------------------------|-3--0-0-0--0-0-0--2--3------|---------------------------|

E|----------------------------|---------------------------|----------------------------|
B|----------------------------|---------------------------|----------------------------|
G|----------------------------|---------------------------|----------------------------|
D|----------------------------|---------------------------|----9-9-9------------10-9---|
A|-2-----------------0--2-----|-0--5-5-5--5-5-5--3--2--0--|-7---------10-7--10---------|
E|----3-3-3--3-3-3---------3--|---------------------------|----------------------------|


E|---------------------------------|---------|-----------------------------------|
B|---------------------------------|---------|-----------------------------------|
G|---------------------------------|---------|-----------------------------------|
D|-7-----------9---7-----------9---|-----7---|-----9--9--9---------------10--9---|
A|-----9---10----------9---10------|-9-------|-7-------------10--7---10----------|
E|---------------------------------|---------|-----------------------------------|

E|---------------------------------|---------------------------------|---------|------|-0----|
B|---------------------------------|---------------------------------|---------|------|-0----|
G|---------------------------------|---------------------------------|---------|------|------|
D|-7-----------9---7-----------9---|-----7-------5-------4-------2---|-----1---|-2----|------|
A|-----9---10----------9---10------|-9-------7-------5-------3-------|-2-------|------|------|
E|---------------------------------|---------------------------------|---------|------|------|



Zwrotka:

E|--------|--------|-------------|-------------------------------|--------|
B|--------|--------|-------------|-------------------------------|--------|
G|--------|--------|-------------|-------------------------------|--------|
D|-2------|-2------|-5-----4-----|-5-----------------------------|-2------|
A|-2------|-2------|-3-----2-----|-3-----6--7--6--7--6--7--6--7--|-2------|
E|-0------|-0------|-3-----2-----|-3-----------------------------|-0------|


E|-------------------------|--------|---------|----------------------------------------|
B|-------------------------|--------|---------|----------------------------------------|
G|-------------------------|--------|---------|-9--9--9--9--x--12-12-9--12-12-12-12-12-|
D|-2--2--2--2--2--2--2--2--|-5---4--|-5---7---|-9--9--9--9--x--12-12-9--12-12-12-12-12-|
A|-2--2--2--2--2--2--2--2--|-3---2--|-3---5---|-7--7--7--7--x--10-10-7--10-10-10-10-10-|
E|-0--0--0--0--0--0--0--0--|-3---2--|-3---5---|----------------------------------------|

E|-------------------------------------------|-------------------------------------------|
B|-------------------------------------------|-------------------------------------------|
G|-------------9--x--------0-----------------|-------------9--x--------9-----------------|
D|-12--12--12--9--x--9--9--9--9--9--9--9--9--|-10--10--10--9--x--9--9--9--9--9--9--9--9--|
A|-12--12--12--7--x--9--9--7--9--9--9--9--9--|-10--10--10--7--x--9--9--7--9--9--9--9--9--|
E|-10--10--10--------7--7-----7--7--7--7--7--|-8---8---8---------7--7-----7--7--7--7--7--|


E|-----------------------------------|-------------------------------------------|
B|-----------------------------------|-------------------------------------------|
G|-------------9--x------------------|-9---9---9---9--x--12-12-9--12-12-12-12-12-|
D|-7---7---7---9--x----------5-------|-9---9---9---9--x--12-12-9--12-12-12-12-12-|
A|-7---7---7---7--x------6-------6---|-7---7---7---7--x--10-10-7--10-10-10-10-10-|
E|-5---5---5---------7---------------|-------------------------------------------|


E|-------------------------------------------|-------------------------------------------|
B|-------------------------------------------|-------------------------------------------|
G|-------------9--x--------9-----------------|-------------9--x--------9-----------------|
D|-12--12--12--9--x--9--9--9--9--9--9--9--9--|-10--10--10--9--x--9--9--9--9--9--9--9--9--|
A|-12--12--12--7--x--9--9--7--9--9--9--9--9--|-10--10--10--7--x--9--9--7--9--9--9--9--9--|
E|-10--10--10--------7--7-----7--7--7--7--7--|-8---8---8---------7--7-----7--7--7--7--7--|


E|----------------------------|----------------------------------|
B|----------------------------|----------------------------------|
G|----------9--x--------------|----------------------------------|
D|-7--7--7--9--x--5--5--4--4--|-2--2--2--------2--2--------------|
A|-7--7--7--7--x--5--5--4--4--|-2--2--2--2--0--2--2--2--0--------|
E|-5--5--5--------3--3--2--2--|-0--0--0--------0--0--------3--2--|


Refren:
                                        x2
E|-----------------------------------------|-----------------------------------------|
B|-----------------------------------------|-----------------------------------------|
G|-5---5---5--5--5--5----------------------|-4---4---4--4--4--4----------------------|
D|-5---5---5--5--5--5--5---5---5--5--5--5--|-4---4---4--4--4--4--2---2---2--2--2--2--|
A|-3---3---3--3--3--3--5---5---5--5--5--5--|-2---2---2--2--2--2--2---2---2--2--2--2--|
E|---------------------3---3---3--3--3--3--|---------------------0---0---0--0--0--0--|


E|-----------------------------------------|-----------------------------------------|
B|-----------------------------------------|-----------------------------------------|
G|-2---2---2--2--2--2----------------------|-4---4---4--4--4--4----------------------|
D|-2---2---2--2--2--2--5---5---5--5--5--5--|-4---4---4--4--4--4--2---2---2--2--2--2--|
A|-0---0---0--0--0--0--5---5---5--5--5--5--|-2---2---2--2--2--2--2---2---2--2--2--2--|
E|---------------------3---3---3--3--3--3--|---------------------0---0---0--0--0--0--|


E|---------------------------------------|-----------------------------------------|
B|---------------------------------------|-----------------------------------------|
G|---------------------------------------|-5---5---5--5--5--5----------------------|
D|-2---2---2---------2---2---------------|-5---5---5--5--5--5--5---5---5--5--5--5--|
A|-2---2---2---2--0--2---2---2--0--------|-3---3---3--3--3--3--5---5---5--5--5--5--|
E|-0---0---0---------0---0---------3--2--|---------------------3---3---3--3--3--3--|


E|-----------------------------------------|-----------------------------------------|
B|-----------------------------------------|-----------------------------------------|
G|-5---5---5--5--5--5----------------------|-4---4---4--4--4--4----------------------|
D|-5---5---5--5--5--5--5---5---5--5--5--5--|-4---4---4--4--4--4--2---2---2--2--2--2--|
A|-3---3---3--3--3--3--5---5---5--5--5--5--|-2---2---2--2--2--2--2---2---2--2--2--2--|
E|---------------------3---3---3--3--3--3--|---------------------0---0---0--0--0--0--|


E|-----------------------------------------|-----------------------------------------|
B|-----------------------------------------|-----------------------------------------|
G|-2---2---2--2--2--2----------------------|-4---4---4--4--4--4----------------------|
D|-2---2---2--2--2--2--5---5---5--5--5--5--|-4---4---4--4--4--4--2---2---2--2--2--2--|
A|-0---0---0--0--0--0--5---5---5--5--5--5--|-2---2---2--2--2--2--2---2---2--2--2--2--|
E|---------------------3---3---3--3--3--3--|---------------------0---0---0--0--0--0--|


Przygrywka:

E|-------------------------------------|-------------------------------------|-------------------------------------|
B|-------------------------------------|-------------------------------------|-------------------------------------|
G|-------------------------------------|-------------------------------------|-------------------------------------|
D|-------------------------------------|-------------------------------------|-------------------------------------|
A|---------------------------------2---|-3---3--3--3---3--3--3---2---0---2---|-------------------------0---2-------|
E|-0---0--0--0---0--0--0---2---3-------|-------------------------------------|-3---3--3--3---3--3--3-----------3---|


E|-------------------------------------|-------------------------------------|-------------------------------------|
B|-------------------------------------|-------------------------------------|-------------------------------------|
G|-------------------------------------|-------------------------------------|-------------------------------------|
D|-------------------------------------|-------------------------------------|-------------------------------------|
A|-5---5--5--5---5--5--5---3---2---0---|---------------------------------2---|-3---3--3--3---3--3--5---3---2---3---|
E|-------------------------------------|-3---0--0--0---0--0--0---2---3-------|-------------------------------------|


E|-------------------------------------|-------------------------------------|-------------------------------------|
B|-------------------------------------|-------------------------------------|-------------------------------------|
G|-------------------------------------|-------------------------------------|-------------------------------------|
D|-------------------------------------|-------------------------------------|-------------------------------------|
A|-------------------------0---2-------|-5---5--5--5---5--5--7---5---3---0---|---------------------------------2---|
E|-3---3--3--3---3--3--3-----------3---|-------------------------------------|-3---0--0--0---0--0--0---2---3-------|


E|-------------------------------------|-------------------------------------|-------------------------------------|
B|-------------------------------------|-------------------------------------|-------------------------------------|
G|-------------------------------------|-------------------------------------|-------------------------------------|
D|-------------------------------------|-------------------------------------|-------------------------------------|
A|-3---3--3--3---3--3--3---2---0---2---|-------------------------0---2-------|-5---5--5--5---5--5--5---3---2---0---|
E|-------------------------------------|-3---3--3--3---3--3--3-----------3---|-------------------------------------|


E|-------------------------------------|-------------------------------------|-------------------------------------|
B|-------------------------------------|-------------------------------------|-------------------------------------|
G|-------------------------------------|-------------------------------------|-------------------------------------|
D|-------------------------------------|-------------------------------------|-------------------------------------|
A|---------------------------------2---|-3---3--3--3---3--3--5---3---2---3---|-------------------------0---2-------|
E|-3---0--0--0---0--0--0---2---3-------|-------------------------------------|-3---3--3--3---3--3--3-----------3---|


E|-------------------------------------|---------------------------------------|-----------------------------------------|
B|-------------------------------------|---------------------------------------|-----------------------------------------|
G|-------------------------------------|---------------------------------------|-5---5---5--5--5--5----------------------|
D|-------------------------------------|-2---2---2---------2---2---------------|-5---5---5--5--5--5--5---5---5--5--5--5--|
A|-5---5--5--5---5--5--7---5---3---0---|-2---2---2---2--0--2---2---2--0--------|-3---3---3--3--3--3--5---5---5--5--5--5--|
E|-------------------------------------|-0---0---0---------0---0---------3--2--|---------------------3---3---3--3--3--3--|


E|-----------------------------------------|-----------------------------------------|
B|-----------------------------------------|-----------------------------------------|
G|-5---5---5--5--5--5----------------------|-4---4---4--4--4--4----------------------|
D|-5---5---5--5--5--5--5---5---5--5--5--5--|-4---4---4--4--4--4--2---2---2--2--2--2--|
A|-3---3---3--3--3--3--5---5---5--5--5--5--|-2---2---2--2--2--2--2---2---2--2--2--2--|
E|---------------------3---3---3--3--3--3--|---------------------0---0---0--0--0--0--|


E|-----------------------------------------|-----------------------------------------|
B|-----------------------------------------|-----------------------------------------|
G|-2---2---2--2--2--2----------------------|-4---4---4--4--4--4----------------------|
D|-2---2---2--2--2--2--5---5---5--5--5--5--|-4---4---4--4--4--4--2---2---2--2--2--2--|
A|-0---0---0--0--0--0--5---5---5--5--5--5--|-2---2---2--2--2--2--2---2---2--2--2--2--|
E|---------------------3---3---3--3--3--3--|---------------------0---0---0--0--0--0--|


E|---------------------------------------|-----------------------------------------|
B|---------------------------------------|-----------------------------------------|
G|---------------------------------------|-5---5---5--5--5--5----------------------|
D|-2---2---2---------2---2---------------|-5---5---5--5--5--5--5---5---5--5--5--5--|
A|-2---2---2---2--0--2---2---2--0--------|-3---3---3--3--3--3--5---5---5--5--5--5--|
E|-0---0---0---------0---0---------3--2--|---------------------3---3---3--3--3--3--|


E|-----------------------------------------|-----------------------------------------|
B|-----------------------------------------|-----------------------------------------|
G|-5---5---5--5--5--5----------------------|-4---4---4--4--4--4----------------------|
D|-5---5---5--5--5--5--5---5---5--5--5--5--|-4---4---4--4--4--4--2---2---2--2--2--2--|
A|-3---3---3--3--3--3--5---5---5--5--5--5--|-2---2---2--2--2--2--2---2---2--2--2--2--|
E|---------------------3---3---3--3--3--3--|---------------------0---0---0--0--0--0--|


E|-----------------------------------------|-----------------------------------------|
B|-----------------------------------------|-----------------------------------------|
G|-2---2---2--2--2--2----------------------|-4---4---4--4--4--4----------------------|
D|-2---2---2--2--2--2--5---5---5--5--5--5--|-4---4---4--4--4--4--2---2---2--2--2--2--|
A|-0---0---0--0--0--0--5---5---5--5--5--5--|-2---2---2--2--2--2--2---2---2--2--2--2--|
E|---------------------3---3---3--3--3--3--|---------------------0---0---0--0--0--0--|



Outro:


E|---------------------------------|------------------------------|
B|---------------------------------|------------------------------|
G|---------------------------------|------------------------------|
D|-----9-------7-------5-------4---|-----2-------1---2----2-------|
A|-10------9-------7-------5-------|-3-------2------------2-------|
E|---------------------------------|----------------------0-------|


Taby i akordy do Jagoda - Kabanos . Znajdź najlepsze gitarowe chwyty do Jagoda. Zagraj Kabanos Jagoda chords.

Zobacz inne opracowania Kabanos
    Skomentuj Kabanos - Jagoda Tab
    • (will not be published)