Home » Tabulatury i chwyty » K » Kat » Łza Dla Cieniów Minionych

Kat - Łza Dla Cieniów Minionych

Intro/przygrywka:

     Am       Fmaj7           Dm            C      G        F          G
E|-----0-----------------0-------1-------------------------------------------------|
H|--------1-----------1-------------3-----------1------------------1----------0----|
G|-----------2-----2-------------------2---------------0---------2----------0------|
D|--------------3-------------0--------------------------------3----------0--------|
A|--0---------------------------------------3--------------------------------------|
E|-------------------------------------------------3--------1----------3-----------|

 

| Am Fmaj7 | 

| d  C G | F G |

 

Zwrotka:

| Am Fmaj7 | Am Em |

| F | C G |


Refren:

      F5          D5      A5
E|-------------------------------|
H|-------------------------------|
G|----------------7--------------|
D|-----3----------7-------7------|
A|-----3----------5-------7------|
E|-----1------------------5------|

Taby i akordy do Łza Dla Cieniów Minionych - Kat . Znajdź najlepsze gitarowe chwyty do Łza Dla Cieniów Minionych. Zagraj Kat Łza Dla Cieniów Minionych chords.

Zobacz inne opracowania Kat
    Skomentuj Kat - Łza Dla Cieniów Minionych
    • (will not be published)