Home » Tabulatury i chwyty » K » King Crimson » 21st Century Schizoid Man

King Crimson - 21st Century Schizoid Man Tab

Intro:

E|-----------------------------------|
H|-----------------------------------|
G|-----------------------------------|
D|----5?---3/5--1-3-5---3---4---5----|
A|----3?---1/3--1-3-3---3---4---5----|
E|----------------------1---2---3----|


Zwrotka:

E|----6----6----6----6----|
H|----8----8----8----8----|
G|----5----5----5----5----|    x3
D|----5----5----5----5----|
A|------------------------|
E|------------------------|

Taby i akordy do 21st Century Schizoid Man - King Crimson . Znajdź najlepsze gitarowe chwyty do 21st Century Schizoid Man. Zagraj King Crimson 21st Century Schizoid Man chords.

Zobacz inne opracowania King Crimson
    Skomentuj King Crimson - 21st Century Schizoid Man Tab
    • (will not be published)