Home » Tabulatury i chwyty » K » KSU » 1944

KSU - 1944 Tab


Intro:

     F#      A       E
E|-------------------------------------|
B|-------------------------------------|
G|-------------------9------9---9--9---|       x4
D|-------------------9------9---9--9---| 
A|---4---4---7---7---7---7--7---7--7---|
E|---2---2---5---5---7---7--7---7--7---|



Zwrotka:

    F#            A           E
E|-----------------------------------------------------|
B|-----------------------------------------------------|
G|-----------------------------------------------------|    
D|-----------------------------------------------------|
A|---4--4--4--4--7--7--7--7--2--2--2--2--2--2--2--2----|
E|---2--2--2--2--5--5--5--5--0--0--0--0--0--0--0--0----|


Refren:

E|------------------------|---------------------------------------|
B|------------------------|---------------------------------------|
G|------------------------|---------------------------------------|
D|------------------------|---------------------------------------|
A|---4---2------4---2-----|---7---7---7--7--7---2---2---2--2--2---|
E|---2---0------2---0-----|---5---5---5--5--5---0---0---0--0--0---|




Deszcze niespokojne....

    F#                                    E             F#         E
E|-------------------------|-------------------------|-------------------------|
B|-------------------------|-------------------------|-------------------------|
G|-------------------------|-------------------------|-------------------------|
D|-------------------------|-------------------------|-------------------------|
A|-4--4--4--4--4--4--4--4--|-4--4--4--4--2--2--2--2--|-4--4--4--4--2--2--2--2--|
E|-2--2--2--2--2--2--2--2--|-2--2--2--2--0--0--0--0--|-2--2--2--2--0--0--0--0--|

   C#                 H      C#                        F#
E|-------------------------|-------------------------|-------------------------|
B|-------------------------|-------------------------|-------------------------|
G|-------------------------|-------------------------|-------------------------|
D|-6--6--6--6--6--6--4--4--|-6--6--6--6--6--6--6--6--|-------------------------|
A|-4--4--4--4--4--4--2--2--|-4--4--4--4--4--4--4--4--|-4--4--4--4--4--4--4--4--|
E|-------------------------|-------------------------|-2--2--2--2--2--2--2--2--|


E|-------------------------|-------------------------|-------------------------|
B|-------------------------|-------------------------|-------------------------|
G|-------------------------|-------------------------|-------------------------|
D|-------------------------|-------------------------|-------------------------|
A|-2--2--2--2--2--2--2--2--|-7--7--7--7--7--7--2--2--|-4--4--4--4--4--4--4--4--|
E|-0--0--0--0--0--0--0--0--|-5--5--5--5--5--5--0--0--|-2--2--2--2--2--2--2--2--|

Taby i akordy do 1944 - KSU . Znajdź najlepsze gitarowe chwyty do 1944. Zagraj KSU 1944 chords.

Skomentuj KSU - 1944 Tab
  • (will not be published)