Home » Tabulatury i chwyty » K » KSU » Jabol Punk

KSU - Jabol Punk Tab

                                         x2
E|------------------------------------------|-----------------------------------|
H|------------------------------------------|-----------------------------------|
G|---6---6--9--9---9--11-11--11-------------|---6---6--6--2---2--2--4---6--4----|
D|---6---6--9--9---9--11-11--11-9----9--9---|---6---6--6--2---2--2--4---6--4----|
A|---4---4--7--7---7--9--9---9--9----9--9---|---4---4--4--0---0--0--2---4--2----|
E|------------------------------7----7--7---|-----------------------------------|

   
   Gdy nie wiesz....
E|-----------------------------------|-----------------------------------|
B|-----------------------------------|-----------------------------------|
G|-----------------------------------|-----------------------------------|
D|--2-2-2-2-2-2-2-2-9-9-9-9-9-9-9-9--|--5-5-5-5-5-5-5-5-7-7-7-7-7-7-7-7--|
A|--0-0-0-0-0-0-0-0-7-7-7-7-7-7-7-7--|--3-3-3-3-3-3-3-3-5-5-5-5-5-5-5-5--|
E|-----------------------------------|-----------------------------------|


E|-----------------------------------|---------------------------|
B|-----------------------------------|---------------------------|
G|-----------------------------------|---------------------------|
D|--2-2-2-2-2-2-2-2-9-9-9-9-9-9-9-9--|--5-5-5-5-5-5-5-5-7--------|
A|--0-0-0-0-0-0-0-0-7-7-7-7-7-7-7-7--|--3-3-3-3-3-3-3-3-5--------|
E|-----------------------------------|---------------------------|

Taby i akordy do Jabol Punk - KSU . Znajdź najlepsze gitarowe chwyty do Jabol Punk. Zagraj KSU Jabol Punk chords.

Skomentuj KSU - Jabol Punk Tab
  • (will not be published)