Home » Tabulatury i chwyty » L » Lady Pank » Kryzysowa Narzeczona

Lady Pank - Kryzysowa Narzeczona Tab Chords


E|------------------------------|----------------------------|
B|------------------------------|----------------------------|
G|---------2----0---------------|---------2----5/0-----------|
D|------------------2-----------|----------------------------|
A|-0---0----------------3---0---|-----0--------------0---3---|
E|------------------------------|----------------------------|


E|---------------------------|---------------------------|
B|---------------------------|---------------------------|
G|------2----0---2---0-------|---------2----0------------|
D|---------------------------|------------------2--------|
A|-3---------------------3---|-----3----------------3----|
E|---------------------------|---------------------------|


E|---------------------------|
B|----------6---6---6---8----|
G|----------5---5---5---7----|
D|----------7---7---7---9----|
A|----------5---5---5---7----|
E|---------------------------|



| a | a | F | G |    Mogłaś moją być...

| a | a | C | C |    Nie jeden raz...

| d | d | A# | C |   Mogłaś być już na dnie...

Taby i akordy do Kryzysowa Narzeczona - Lady Pank . Znajdź najlepsze gitarowe chwyty do Kryzysowa Narzeczona. Zagraj Lady Pank Kryzysowa Narzeczona chords.

Skomentuj Lady Pank - Kryzysowa Narzeczona Tab Chords
  • (will not be published)