Home » Tabulatury i chwyty » L » Lady Pank » Marchewkowe Pole

Lady Pank - Marchewkowe Pole Tab

Intro:

E|-------------------------------------------------|
B|-------------------------------------------------|
G|-------------0-----------------0--------0--------|
D|-------4--------4-----4-----2--------0--------2--|
A|----5-----5--------5-----3--------2--------3-----|
E|-------------------------------------------------|

E|-------------------------------------------------|
B|-------------------------------------------------|
G|-------------0-----------------0--------0--------|      x3
D|-------4--------4-----4-----2--------0--------2--|
A|-3--5-----5--------5-----3--------2--------3-----|
E|-------------------------------------------------|



Zwrotka:
                                                          _
E|-------------5-----------------------5-----------|       |
B|----------5-----5-----------------5-----5--------|       |
G|-------7-----------7-----------6-----------6-----|       |
D|----7-----------------7-----7-----------------7--|       |
A|-5-----------------------7-----------------------|       |
E|-------------------------------------------------|       |
                                                           |  x2
E|-------------1-----------------------3-----------|       |
B|----------1-----1-----------------3-----3--------|       |
G|-------2-----------2-----------4-----------4-----|       |
D|----3-----------------3-----5-----------------5--|       |
A|-3-----------------------5-----------------------|       |
E|-------------------------------------------------|       |
                                                          _|


Refren:

E|-----5--5------5---------5--5------5-----|
B|-----7--7------7---------5--5------5-----|
G|-----7--7------7---------6--6------6-----|
D|-----7--7------7---------7--7------7-----|
A|-----5--5------5---------7--7------7-----|
E|-------------------------5--5------5-----|

E|-----7--7------7---------7--7--------------|
B|-----8--8------8---------8--8-----6--6--6--|
G|-----9--9------9---------9--9-----7--7--7--|
D|-----9--9------9---------9--9-----8--8--8--|
A|-----7--7------7---------7--7-----8--8--8--|
E|----------------------------------6--6--6--|

Taby i akordy do Marchewkowe Pole - Lady Pank . Znajdź najlepsze gitarowe chwyty do Marchewkowe Pole. Zagraj Lady Pank Marchewkowe Pole chords.

Skomentuj Lady Pank - Marchewkowe Pole Tab
  • (will not be published)