Home » Tabulatury i chwyty » L » Lady Pank » Zostawcie Titanica

Lady Pank - Zostawcie Titanica Tab Chords

Intro:

E|------------------------------------------------|
B|------------9--10--9----------------------9-----|
G|-----9--11------------11--9---11--9---11--------|
D|------------------------------------------------|
A|------------------------------------------------|
E|------------------------------------------------|

E|--------------------------------------------------------------------------|
H|---10--9-----------------------------9--10--9---------------------9-------|
G|----------11--9--11--9--11----9--11------------11--9--11--9---11-----11---|
D|--------------------------------------------------------------------------|
A|--------------------------------------------------------------------------|
E|--------------------------------------------------------------------------|


| E | E | c# | c# |
                      x2
| A | A | H | H | 


Zwrotka:

| E | E | g# (c#) | g# (c#) |
                      x2
| A | A | H | H | 

 

| c# | A | H | H |    x2   Piękna aktorka...



 

Refren:

| E H | c# A |

 

| D | E |    x2   Niezatapialnie śnią...

Taby i akordy do Zostawcie Titanica - Lady Pank . Znajdź najlepsze gitarowe chwyty do Zostawcie Titanica. Zagraj Lady Pank Zostawcie Titanica chords.

Komentarze
Skomentuj Lady Pank - Zostawcie Titanica Tab Chords
  • (will not be published)