Home » Tabulatury i chwyty » L » Lenny Kravitz » New York City

Lenny Kravitz - New York City Tab Chords


      Em                                          D
E|----------------7------------------7---------------------------|
H|----------------8------------------8---------------------------|
G|---------------------------------------------------------------|
D|---------------------------------------------------------------|
A|--------------------------------------------------5-5-5-7-7-7--|
E|------0---0------------0---0-------------0-0-0-0---------------|


   Em      D
Broadway...

   Em      D
Everybody's...

   Em      D
Uptown...

   Em      D
She can...


       C          Am       Em7
E|-----8----------5--------7-------------------------------|
H|-----8----------5--------8---------8\7/8------12\11/12---|
G|-----9----------5--------7---------9\8/9------12\11/12---|
D|-----10---------7--------9-------------------------------|
A|-----10---------7--------7-------------------------------|
E|---------------------------------------------------------|


   C    Am   Em
She gave...

   C    Am   Em
She raised...

   C    Am   Em
She opened...

   C    Am   H
The greatest...



      Em      D       C       D
E|------------------------------------|
H|----8-------7-------5-------7-------|
G|----9-------7-------5-------7-------|
D|----9-------7-------5-------7-------|
A|----7-------5-------3-------5-------|
E|------------------------------------|

    Em     D    C    D
She is my...

    Em     D    C    D
She's lived...

    Em     D    C    D
Life is...

    Em     D    C    D
But she is...


Taby i akordy do New York City - Lenny Kravitz . Znajdź najlepsze gitarowe chwyty do New York City. Zagraj Lenny Kravitz New York City chords.

Skomentuj Lenny Kravitz - New York City Tab Chords
  • (will not be published)