Home » Tabulatury i chwyty » L » Lenny Kravitz » The Chamber

Lenny Kravitz - The Chamber Bas


G|---------------------------------------------------------|
D|---------------------------------------------------------|
A|-----------------------3-------------------------3-------|
E|---5-5-3-5-5-3-5-5-3-5---0-3-5-5-3-5-5-3-5-5-3-5---0-3---|

G|----------------------------------------------------------|
D|----------------------------------------------------------|
A|---8-8---8-8---8-8---8-10-8--0-3-3---3-3---3-3---3-5------|
E|-------8-----8-----8---------------3-----3-----3-----0-3--|

Taby i akordy do The Chamber - Lenny Kravitz . Znajdź najlepsze gitarowe chwyty do The Chamber. Zagraj Lenny Kravitz The Chamber chords.

Skomentuj Lenny Kravitz - The Chamber Bas
  • (will not be published)