Home » Tabulatury i chwyty » L » Limp Bizkit » Almost Over

Limp Bizkit - Almost Over Tab


drop H

Zwrotka:

|--------------------------|
|--------------------------|
|--------7-------7---------|
|------7---7---7---7-------|
|----5-------5-------5-----|
|--------------------------|


|--------------------|
|--------------------|
|--------------------|
|---0-----3-5---3----|
|---0-----3-5---3----|
|---0-----3-5---3----|


Refren:

|----------------------------------------------------------|
|----------------------------------------------------------|
|----5-------------------------5---------------------------|
|----5-0-0-0-0-00-6-0-0-0-0-00-5-0-0-0-0-00-6-6-6-6-55-----|
|----3-0-0-0-0-00-6-0-0-0-0-00-3-0-0-0-0-00-6-6-6-6-55-----|
|------0-0-0-0-00-6-0-0-0-0-00---0-0-0-0-00-6-6-6-6-55-----|


Taby i akordy do Almost Over - Limp Bizkit . Znajdź najlepsze gitarowe chwyty do Almost Over. Zagraj Limp Bizkit Almost Over chords.

Skomentuj Limp Bizkit - Almost Over Tab
  • (will not be published)