Home » Tabulatury i chwyty » M » Marilyn Manson » If I Was Your Vampire

Marilyn Manson - If I Was Your Vampire Tab


Zwrotka:

E|----------------|-----------------|-----------------------------|-----------------|
B|----------------|-----------------|-----------------------------|-----------------|
G|----------------|-----------------|-----------------------------|-----------------|
D|----------------|-----------------|-----------------------------|-----------------|
A|-----2-------3--|-----2-------3---|----2------3------2------0---|-----5---3---2---|
E|-0-------0------|-0-------0-------|-0------0------0------0------|-0---------------|


Refren:
                                        x2
E|---------------------------|-------------|--------------------------|-----------------|
B|---------------------------|-------------|--------------------------|-----------------|
G|-----4-------5---5---------|-------------|----4-----5-----4-----2---|-----7---5---4---|
D|-2-------2-----------------|-------------|-2-----2-----2-----2------|-2---------------|
A|----------------------7----|-7--7--7--7--|--------------------------|-----------------|
E|----------------------0----|-0--0--0--0--|--------------------------|-----------------|


Taby i akordy do If I Was Your Vampire - Marilyn Manson . Znajdź najlepsze gitarowe chwyty do If I Was Your Vampire. Zagraj Marilyn Manson If I Was Your Vampire chords.

Skomentuj Marilyn Manson - If I Was Your Vampire Tab
  • (will not be published)