Home » Tabulatury i chwyty » M » Marilyn Manson » Irresponsible Hate Anthem

Marilyn Manson - Irresponsible Hate Anthem Tab


Intro/zwrotka:

E|------------------------------------|-------------------------|
H|------------------------------------|-------------------------|
G|------------------------------------|-------------------------|
D|-4-4-4-7-7-7-9-9-10-10-10-9-9-9-7-7-|-4-4-4-7-7-7-9-9-2-2-2-2-|
A|-4-4-4-7-7-7-9-9-10-10-10-9-9-9-7-7-|-4-4-4-7-7-7-9-9-2-2-2-2-|
E|-2-2-2-5-5-5-7-7--8--8--8-7-7-7-5-5-|-2-2-2-5-5-5-7-7-0-0-0-0-|


Refren:

E|------------------------------------|-------------------------|
H|------------------------------------|-------------------------|
G|------------------------------------|-------------------------|
D|-4-4-4-7-7-7-9-9-10-10-10-9-9-9-7-7-|-4-4-4-7-7-7-9-9-2-2-2-2-|
A|-4-4-4-7-7-7-9-9-10-10-10-9-9-9-7-7-|-4-4-4-7-7-7-9-9-2-2-2-2-|
E|-2-2-2-5-5-5-7-7--8--8--8-7-7-7-5-5-|-2-2-2-5-5-5-7-7-0-0-0-0-|

Taby i akordy do Irresponsible Hate Anthem - Marilyn Manson . Znajdź najlepsze gitarowe chwyty do Irresponsible Hate Anthem. Zagraj Marilyn Manson Irresponsible Hate Anthem chords.

Skomentuj Marilyn Manson - Irresponsible Hate Anthem Tab
  • (will not be published)