Home » Tabulatury i chwyty » M » Marilyn Manson » Tainted Love

Marilyn Manson - Tainted Love Tab

Zwrotka:

E|----------------|
B|----------------|
G|----------------|
D|-5---5----------|
A|-5---5----------|
E|-3---3----------|


Refren:

E|---------------------|---------------------|---------------------|
B|---------------------|---------------------|---------------------|
G|---------------------|---------------------|-7---7-----7---7-----|
D|-5---5-----5---5-----|-8---8-----8---8-----|-7---7-----7---7-----|
A|-5---5-----5---5-----|-8---8-----8---8-----|-5---5-----5---5-----|
E|-3---3-----3---3-----|-6---6-----6---6-----|---------------------|

E|---------------------|---------------------|
B|---------------------|---------------------|
G|-5---5-----5---5-----|-5---5-----5---5-----|
D|-5---5-----5---5-----|-5---5-----5---5-----|
A|-3---3-----3---3-----|-3---3-----3---3-----|
E|---------------------|---------------------|



Taby i akordy do Tainted Love - Marilyn Manson . Znajdź najlepsze gitarowe chwyty do Tainted Love. Zagraj Marilyn Manson Tainted Love chords.

Skomentuj Marilyn Manson - Tainted Love Tab
  • (will not be published)