Home » Tabulatury i chwyty » M » Metallica » Bleeding Me

Metallica - Bleeding Me Tab Chords

ton. D#

Zwrotka:

E|----------------------------------------|
H|----------------------------------------|
G|----------------------------------------|
D|----------5p0---------------------5-----|
A|------/7-------7-------7-------5-----7--|
E|---0----------------0----0--5-----------|

E|----------------------------------------|
H|----------------------------------------|
G|----------------------------------------|
D|----------5p0---------------------------|
A|------/7-------7------7\-------4--5\2---|
E|---0---------------0------0h5-----4\3---|

E|----------------------------------------|
H|----------------------------------------|
G|----------------------------------------|
D|----------5p0---------------------5-----|
A|------/7-------7-------7-------5-----7--|
E|---0----------------0----0--5-----------|

E|----------------------------------------|
H|.---------------------------------------|
G|----------------------------------------|
D|----------5p0---------------------------|
A|------/7-------7-------5-------5--------|
E|---0----------------3----3--2-----2-----|


 

Refren:

E5 D5 A5 

 

Po II zw:

E|-----------------------------------------------------------|
H|-----------------------------------------------------------|
G|-----------------------------------------------------------|
D|---7h9--------9----------9----------9----------10p9--7h9---|
A|---7----------7----------7----------7----7h10--------------|
E|---0---0--0---0---0--0---0---0--0---0--0-------------------|

Taby i akordy do Bleeding Me - Metallica . Znajdź najlepsze gitarowe chwyty do Bleeding Me. Zagraj Metallica Bleeding Me chords.

Skomentuj Metallica - Bleeding Me Tab Chords
  • (will not be published)