Home » Tabulatury i chwyty » M » Metallica » Creeping Death

Metallica - Creeping Death Tab

Intro:

E|--------------------------------------|
H|--------------------------------------|
G|--------------9----------------9--7---|
D|--------------9----------------9--7---|
A|--------------7----------------7--5---|
E|---0-0-0-0-0--------0-0-0-0-0---------|


E|--------------|
H|--------------|
G|--------------|
D|--------------|
A|----7--5--5---|
E|----5--3--2---|

 


Zwrotka:

E|-----------------------------------------|
H|-----------------------------------------|
G|-----------------------------------------|
D|-------2-----2---2-----2-----------------|
A|-------2-----2---2-----2---2-3-2h3p2p0---|
E|---0-0---0-0---0---0-0---0---------------|


E|------------------------------------|
H|------------------------------------|
G|------------------------------------|
D|------------------------------------|
A|-------5------5---------------------|
E|---0-0-3--0-0-3---0-0-2-2-2-2-2-2---|


E|-----------|-------------|
H|-----------|-------------|
G|-----------|-------------|
D|-----2-----|---4--6------|
A|-----2-----|---2--4--4---|
E|-----0-----|---------2---|


 


Refren:

E|------------------------------------|
H|------------------------------------|
G|-----------------5--7-----10----9---|
D|---2-------------5--7-----10----9---|
A|---2-------------3--5-----8-----7---|
E|---0-------0-0-0--------------------|

E|--------------------------------|
H|--------------------------------|
G|---------5--7-----10---12---9---|
D|---------5--7-----10---12---9---|
A|---------3--5-----8----10---7---|
E|---0-0-0------------------------|

E|-----------------------------|
H|-----------------------------|
G|---------5--7-----10----9----|
D|---------5--7-----10----9----|
A|---------3--5-----8-----7----|
E|---0-0-0---------------------|

E|-----------------------------|
H|-----------------------------|
G|---------5--7-----4--6-------|
D|---------5--7-----4--6--4----|
A|---------3--5-----2--4--4----|
E|---0-0-0----------------2----|


 

Po solówce:

E|---------------------------------------------------|
H|---------------------------------------------------|
G|---9-------------10---7---9-------------12---10----|
D|---9-------------10---7---9-------------12---10----|
A|---7----7-7-7-7---8---5---7----7-7-7-7--10----8----|
E|---------------------------------------------------|

 

Outro:

E|---------------------------------------------|
H|---------------------------------------------|
G|---------------------------------------------|
D|-------2-----2---2---------2-----2----3------|
A|-------2-----2---2---------2-----2----3------|
E|---0-0---0-0---0-------0-0---0-0---0---------|

Taby i akordy do Creeping Death - Metallica . Znajdź najlepsze gitarowe chwyty do Creeping Death. Zagraj Metallica Creeping Death chords.

Skomentuj Metallica - Creeping Death Tab
  • (will not be published)