Home » Tabulatury i chwyty » M » Metallica » Cyanide

Metallica - Cyanide Tab


e|------------------------------------------------|
B|------------------------------------------------|
G|---------------7-----7-----7--------------------|
D|---------------8-----8-----8--------------------|
A|--2-2-2--------7-----7-----7------2-2-2---------|
E|--0-0-0---00-----00----00----00---0-0-0---------|


e|--------------------------------------------------------|
B|--------------------------------------------------------|
G|--------------------------------------------------------|
D|-------------------------------12---9---7---9---9-------|
A|---14-14-14--13-13-13--12-12---10---7---5---7---7-------|
E|----0--0--0---0--0--0---0--0----------------------------|


e|--------------------------------------------------|
B|--------------------------------------------------|
G|--------------------------------------------------|
D|--------------------------------------------------|
A|---------7--5-------7--5-------7--5------7--5-----|
E|----0--0-------0--0-------0--0------0--0----------|


e|---------|---------|------------------------------------------------------------|
B|---------|---------|------------------------------------------------------------|
G|----5----|----8----|----4--4---7-7--7-------------------------------------------|
D|----5----|----8----|----4--4---7-7--7-------------------------------------------|
A|----3----|----6----|----2--2---5-5--5---------7-5------7-5------7-5------7-5----|
E|----3----|----6----|----2--2---5-5--5----0--0-----0--0-----0--0-----0--0--------|

e|---------|---------|------------------------------------------------------------|
B|---------|---------|------------------------------------------------------------|
G|----5----|----8----|----12--12---11-11------------------------------------------|
D|----5----|----8----|-----x---x----x--x------------------------------------------|
A|----3----|----6----|----10--10----9--9----------7-5------7-5------7-5------7-5--|
E|----3----|----6----|-----------------------0--0-----0--0-----0--0-----0--0------|


e|-------------------------------------------------------------------------------|
B|-------------------------------------------------------------------------------|
G|-------------------------------------------------------------------------------|
D|-------------------------------------------------------------------------------|
A|----------------1-----2--------1-2-1h2p1-----2-------1-2-4--4h5p4--2-1----2----|
E|--0-0-0-0-0-0-0---3---0-0-0-0------------3---0-0-0-0-------------------3--0----|




e|------------------------------|
B|------------------------------|
G|------------------------------|
D|-----4---4---4----5----4------|
A|-----4---4---4----5----4------|
E|-----2---2---2----3----2------|

e|------------------------|
B|------------------------|
G|------------------------|
D|--------4------5p4------|
A|-----4-------4-----4----|
E|---2-------0------------|

Taby i akordy do Cyanide - Metallica . Znajdź najlepsze gitarowe chwyty do Cyanide. Zagraj Metallica Cyanide chords.

Skomentuj Metallica - Cyanide Tab
  • (will not be published)