Home » Tabulatury i chwyty » M » Metallica » Escape

Metallica - Escape Tab



Intro:

e|--------------------------------------|-----------------------------------||
B|--------------------------------------|-----------------------------------||
G|o---------------------------4h5---4---|(4)----------5---4h5h4-----------o-||
D|o-7-------------------------5h7---5---|(5)----------7---5h7h5---7---5---o-||
A|--0---0---0---0---0---0---0-----------|-------------------------8---7-----||
E|--------------------------------------|-----------------------------------||
                 

e|--------------------------------------|-----------------------------------|
B|--------------------------------------|-----------------------------------|
G|----------------------------4h5---4---|(4)----------5---5h4---------------|
D|--7-------------------------5h7---5---|(5)----------7---7h5---7---7-------|
A|--0---0---0---0---0---0---0-----------|-----------------------8---8-------|
E|--------------------------------------|-----------------------------------|
    
               4 times                                                      
e|-------------------||------------------|-----------------|-----------------|
B|-------------------||------------------|-----------------|-----------------|
G|o---------------5-o||o---------------4-|-----------------|---------------5-|
D|o---------------7-o||o---------------5-|---------8-7-5-7-|-7-------------4-|
A|--0-0-0-0-0-0-0----||--0-0-0-0-0-0-0---|-0-0-0-0-6-5-3-5-|-0-0-0-0-0-0-0---|
E|-------------------||------------------|-----------------|-----------------|
    
e|---------------|
B|---------------|
G|---------------|
D|-------8-7-5-7-|
A|-0-0-0-6-5-3-5-|
E|---------------|


Zwrotka:

e|-----------------|-----------------|-----------------|------------------|
B|-----------------|-----------------|-----------------|------------------|
G|-----------------|-----------------|-----------------|------------------|
D|-----------------|-----------------|-----------------|------------------|
A|-4-4-4-4-4-4-4-4-|-4-4-4-4-4-4-4-55|-554-4-4-4-4-4-4-|-4-4-4-4-4-4-2-55-|
E|-2-2-2-2-2-2-2-2-|-2-2-2-2-2-2-2-33|-332-2-2-2-2-2-2-|-2-2-2-2-2-2-2-33-|
PM ------------------------------|       |----------------------------|

e|-----------------|-----------------|-----------------|-----------------|
B|-----------------|-----------------|-----------------|-----------------|
G|-----------------|-----------------|-----------------|-----------------|
D|-----------------|-----------------|-----------------|-----------------|
A|-554-4-4-4-4-4-4-|-4-4-4-4-4-4-4-55|-554-4-4-4-4-4-4-|-4---5---x2--x3--|
E|-332-2-2-2-2-2-2-|-2-2-2-2-2-2-2-33|-332-2-2-2-2-2-2-|-2---3---x0--x1--|
PM   |---------------------------|       |------------|


Refren:


e|-----------------|-----------------|-----------------|-----------------|
B|-----------------|-----------------|-----------------|-----------------|
G|-------7---6---4-|-------7---6---7-|-7\slide\4-------|---------------2-|
D|-----------------|-7---------------|-----------------|-------------4---|
A|-7---------------|(7)------------5-|(5)------------4-|(4)--------4-----|
E|-5---------------|(5)--------0-5-3-|(3)--------0-3-2-|(2)------2-------|

Taby i akordy do Escape - Metallica . Znajdź najlepsze gitarowe chwyty do Escape. Zagraj Metallica Escape chords.

Skomentuj Metallica - Escape Tab
  • (will not be published)