Home » Tabulatury i chwyty » M » Metallica » Fade To Black

Metallica - Fade To Black Tab Chords

Intro:

E|----------------------------|----------------------------|
H|----------------------------|----------------------------|
G|---------0------------------|---------0------------------|
D|------4-----4-----4-----4---|------4-----4-----4-----4---|
A|---2-----------2-----5------|---0-----------0-----5------|
E|----------------------------|----------------------------|

E|----------------------------|----------------------------|
H|----------------------------|----------------------------|
G|---------0------------------|---------2------------------|
D|------4-----4-----4-----4---|------2-----2-----2-----2---|
A|---2-----------2-----5------|---4-----------4-----0------|
E|----------------------------|----------------------------|

Intro zakończenie:

E|---------------------------|----------------------------|
H|---------------------------|-------------------0---3----|
G|---------------------------|--------1--------1----------|
D|---------0-----------2-----|-----2--------2-------------|
A|------3-----------2-----2--|--2--------2----------------|
E|---1--------1--4-----------|----------------------------|

 

Zwrotka:

| a | C | G | e |

E|-------------|
H|---0--1/3----|
G|---0--2/4----| - podczas e
D|-------------|
A|-------------|
E|-------------|

 

Refren:

    A5                            C5
E|-----------------------------|-----------------------------|
H|-----------------------------|-----------------------------|
G|---2-----2--2----------------|---5-----5--5----------------|
D|---2-----2--2----------------|---5-----5--5----------------|
A|---0-----0--0------------5---|---3-----3--3------------5---|
E|----------------0--0--3------|----------------0--0--3------|

     A5             D5  E5                  C5
E|--------------------------------------------------|
H|--------------------------------------------------|
G|---2-----2--2-----7---9-----9--9------------------|
D|---2-----2--2-----7---9-----9--9----------5--5----|
A|---0-----0--0-----5---7-----7--7----------3--2----|
E|------------------------------------0--0----------|

     A5                            C5
E|-----------------------------|-----------------------------|
H|-----------------------------|-----------------------------|
G|---2-----2--2----------------|---5-----5--5----------------|
D|---2-----2--2----------------|---5-----5--5----------------|
A|---0-----0--0------------5---|---3-----3--3------------5---|
E|----------------0--0--3------|----------------0--0--3------|

     A5             G5      E5
E|---------------------------------|
H|---------------------------------|
G|---2-----2--2--------------------|
D|---2-----2--2-------------2------|
A|---0-----0--0-----5--5----2------|
E|------------------3--2----0------|

 

     D E              D E           G   F#
E|--------------------------------------------|
H|--------------------------------------------|
G|---7/9----9---9-----7/9------9---12---11----|
D|---7/9----9---9-----7/9------9---12---11----|
A|---5/7----7---7-----5/7------7---10---9-----|
E|--------------------------------------------|

     D
E|-----------------|-------------------------------------|
H|-----------------|-------------------------------------|
G|---7----7---7----|--------------------------------4----|
D|---7----7---7----|----9-9-9--7-7-7--5-5-5--4-4-4-------|
A|---5----5---5----|-------------------------------------|
E|-----------------|-------------------------------------|

 

goodbye

E|-------------------------|---------------------------|
H|-------------------------|---------------------------|
G|----------------9----9---|----------------12--11-----|
D|----------------9----9---|----------------12--11-----|
A|----------------7----7---|----------------10---9-----|
E|---0--0--0--0------------|---0--0--0--0--------------|

E|----------------------|----------------------------------|
H|----------------------|----------------------------------|
G|----------------7-----|-------------------------------4--|
D|----------------7-----|---9-9-9--7-7-7--5-5-5--4-4-4-----|
A|----------------5-----|----------------------------------|
E|---0--0--0--0---------|----------------------------------|

 

Solo (podkład):

E|--------------------------------|---------------------------------|
H|--------------------------------|---------------------------------|
G|--------------------------------|---------------------------------|
D|---0---4--5--4----2--0----------|-------4--5--4----2--0-----------|
A|-------------------------4--0---|---4---------------------4--0----|
E|--------------------------------|---------------------------------|

E|--------------------------------|---------------------------------|
H|--------------------------------|---------------------------------|
G|--------------------------------|---------------------------------|
D|-------4--5--4----2--0----------|-------4--5--7----5--4----2--4---|
A|---2---------------------4--0---|---4-----------------------------|
E|--------------------------------|---------------------------------|

Taby i akordy do Fade To Black - Metallica . Znajdź najlepsze gitarowe chwyty do Fade To Black. Zagraj Metallica Fade To Black chords.

Komentarze
Skomentuj Metallica - Fade To Black Tab Chords
  • (will not be published)