Home » Tabulatury i chwyty » M » Metallica » Fight Fire With Fire

Metallica - Fight Fire With Fire Tab



Zwrotka/Główny riff:

E|-----------------------------------|--------------------------------|
B|-----------------------------------|--------------------------------|
G|-----------------------------------|--------------------------------|
D|-----------------------------------|--------------------------------|
A|--------------5-----------------4--|-------------5-------4-------3--|
E|--0-0-0-0-0-0-3---0-0-0-0-0-0-0-2--|-0-0-0-0-0-0-3---0-0-2---0-0-1--|


Przejście:

E|----------------------------------|------------------------------------|
B|----------------------------------|------------------------------------|
G|----------------------------------|------------------------------------|
D|----------------------------------|------------------------------------|
A|---------------------------4---5--|-----------------4------4-----------|
E|----0--3---5p0-0-0-3---0-0-2---3--|-0---3---5p0-0-0-2------2-----------|



Refren:

E|----------------------------------|----------------------------------|
B|----------------------------------|----------------------------------|
G|----------------------------------|----------------------------------|
D|-------------------3-----4-----3--|----------------------------------|
A|-2-----5-----2-----1-----2-----1--|-1-1-1-1-1-1-1-1-1-1-1-1-1-1-1-1--|
E|-0-----3-----0--------------------|----------------------------------|

Taby i akordy do Fight Fire With Fire - Metallica . Znajdź najlepsze gitarowe chwyty do Fight Fire With Fire. Zagraj Metallica Fight Fire With Fire chords.

Skomentuj Metallica - Fight Fire With Fire Tab
  • (will not be published)