Home » Tabulatury i chwyty » M » Metallica » For Whom The Bell Tolls

Metallica - For Whom The Bell Tolls Tab



Intro:


e|-------------|------|
B|o------------|-----o|
G|-------------|------|
D|---4-4--4-4--|--2---|
A|o--4-4--4-4--|--2--o|
E|---2-2--2-2--|--0---|


e|---------------------|--------------------|--------------------|
B|o--------------------|-------------------o|--------------------|
G|---------------------|----------------2---|--------------------|
D|---5-4-3-2--5-4-3-2--|--5-4-3-2--5-4--2---|--5-4-3-2--5-4-3-2--|
A|o--5-4-3-2--5-4-3-2--|--5-4-3-2--5-4--0--o|--5-4-3-2--5-4-3-2--|
E|---3-2-1-0--3-2-1-0--|--3-2-1-0--3-2------|--3-2-1-0--3-2-1-0--|

  Guitar 1 (*)
e|---------------------|----|---|-----|----|-----|----|-----|-----------|
B|o--------------------|----|---|-----|----|-----|----|-----|----------o|
G|---------------------|----|---|-----|----|-----|----|-----|--5--------|
D|---2-----------------|----|5--|--5--|----|--2--|----|--5--|--5--7-----|
A|o--2-----------------|----|5--|--5--|----|--2--|----|--5--|--3--7----o|
E|---0-----------------|----|3--|--3--|----|--0--|----|--3--|-----5-----|
 |                                                                                                                
 |Guitar 2                                            
e|----------------------------------------|
B|o--------------------------------------o|
G|---12-9-11----9-11---12-9-11-----9-11---|
D|-----------12-----------------12--------|
A|o--------------------------------------o|
E|----------------------------------------|


Refren:

e|--------------------|---------------|-------------------|
B|o-------------------|---------------|-------------------|
G|--------------------|----------3----|-------------------|
D|---------5-------7--|--------5-3-4--|--------5-------7--|
A|o--------5-------7--|--------5-1-4--|--------5-------7--|
E|---0-0-0-3-0-0-0-5--|--0-0-0-3---2--|--0-0-0-3-0-0-0-5--|

e|----------------------|
B|---------------------o|
G|--------------3-------|
D|--------------3-4-3---|
A|--------5-----1-4-3--o|
E|--0-0-0-3-0-0---2-1---|


Zwrotka:

(*)

Taby i akordy do For Whom The Bell Tolls - Metallica . Znajdź najlepsze gitarowe chwyty do For Whom The Bell Tolls. Zagraj Metallica For Whom The Bell Tolls chords.

Skomentuj Metallica - For Whom The Bell Tolls Tab
  • (will not be published)