Home » Tabulatury i chwyty » M » Metallica » King Nothing

Metallica - King Nothing Tab

ton.D#

E|-----------------------------------------------------|
H|-----------------------------------------------------|
G|-----------------------------------------------------|
D|-------------------5-------------5--------8-----7----|
A|----5--6--7----/7-----7------/7-----7----------------|
E|----0--0--0--0-------------0----------/6----/5-------|

 

Zwrotka:

E|-------------------------------|
H|-------------------------------|
G|-------------------------------|      x3
D|-------------------------------|
A|----------5---------8--7-------|
E|----X--0--3--0--/6--6--5--0----|

E|-------------------------------|
H|-------------------------------|
G|-------------------------------|
D|-------------------------------|
A|----------5---------8--7--5----|
E|----X--0--3--0--/6--6--5--3----|

E|---------------------------------------|
H|---------------------------------------|
G|-------------5-------------------------|
D|------/7--7--------7---5b--------------|
A|---0------------------------------6----|
E|-------------------------------0--6----|

E|-----------------------------|
H|-----------------------------|
G|-------------5--------7b-----|
D|------/7--7--------7---------|
A|---0-------------------------|
E|-----------------------------|

 

Refren:

E5 C5 H5 A5

E5 C5 H5 F5

 

E|---13----13----13----|
H|---16b---16b---16b---|
G|---------------------|
D|---------------------|
A|---------------------|
E|---------------------|

Taby i akordy do King Nothing - Metallica . Znajdź najlepsze gitarowe chwyty do King Nothing. Zagraj Metallica King Nothing chords.

Skomentuj Metallica - King Nothing Tab
  • (will not be published)