Home » Tabulatury i chwyty » M » Metallica » Motorbreath

Metallica - Motorbreath Tab


Intro:

E--------------------------------------------------------------------
B--------------------------------------------------------------------
G--------------------------------------------------------------------
D--------------------------------------------------------------------
A--7---8---9---------------------------------------------------------
E--5---6---7--7-7-7--7-7-7--7-7-7-7-7-7-3--3-3-3--3-3-3--3-3-3-3-3-3-

E-------------------------------------------------------------
B-------------------------------------------------------------
G-------------------------------------------------------------
D-------------------------------------------------------------
A-------------------------------------------------------------
E--5--5-5-5--5-5-5--5-5-5-5-5-5-2--2-2-2--2-2-2--2-2-2-2-2-2--


Zwrotka:

E---------------------------------------------------------------
B---------------------------------------------------------------
G---------------------------------------------------------------
D---------------------------------------------------------------
A--9--9----7--9--9----7--5--5----4--5--5----4--7--7----5--7--7--
E--7--7----5--7--7----5--3--3----2--3--3----2--5--5----3--5--5--

Refren:

E----------------------------------------------------------------
B----------------------------------------------------------------
G----------------------------------------------------------------
D------------------7--7---4--------------------------------------
A--9--9----5--5----5--5---2-4-4-4----5--5----2--2----4-4-4---4---
E--7--7----3--3-------------2-2-2----3--3----0--0----2-2-2-0-2---

Taby i akordy do Motorbreath - Metallica . Znajdź najlepsze gitarowe chwyty do Motorbreath. Zagraj Metallica Motorbreath chords.

Skomentuj Metallica - Motorbreath Tab
  • (will not be published)