Home » Tabulatury i chwyty » M » Metallica » No Remorse

Metallica - No Remorse Tab


Intro:

||-------------------------|-----------------------|------------------------|
||*------------------------|-----------------------|------------------------|
||-------------------------|------------------2----|------------------------|
||-------------------------|------------------2----|------------------------|
||*--2/4--------4----------|--2/4--------4----0----|--2/4--------4----------|
||---0h2--2--2--2p0--0--0--|--0h2--2--2--2p0-------|--0h2--2--2--2p0--0--0--|

|------------------------|
|-----------------------*|
|------------------4-----|
|------------------4-----|
|--2/4--------4----2----*|
|--0h2--2--2--2p0--------|

Zwrotka:

|-------------------------|------------------------|
|*------------------------|------------------------|
|-------------------------|-------------------5----|
|-------------------------|-------------------5----|
|*--------5h7--------5h7--|--------5h7--------3----|
|---0--0-------0--0-------|--0--0-------0--0-------|

|-------------------------|------------------------|
|-------------------------|-----------------------*|
|-------------------------|------------------------|
|-------------------------|-------------7--8--9----|
|--------5h7--------5h7---|--------5h7--7--8--9---*|
|--0--0-------0--0--------|--0--0-------5--6--7----|

Refren:

|---------------------------|--------------------------|
|*--------------------------|--------------------------|
|---------------------------|--------------------------|
|---------------------------|--------------------------|
|*-------10--------9--------|--7--------5--------5--7--|
|--0--0------0--0-----0--0--|-----0--0-----0--0--------|

|---------------------------|--------------------------|
|---------------------------|-------------------------*|
|---------------------------|-----------5-----5\4------|
|---------------------------|-----------5-----5\3------|
|--------10--------9--------|--7----------------------*|
|--0--0------0--0-----0--0--|-----0--0-----------------|

Taby i akordy do No Remorse - Metallica . Znajdź najlepsze gitarowe chwyty do No Remorse. Zagraj Metallica No Remorse chords.

Skomentuj Metallica - No Remorse Tab
  • (will not be published)