Metallica - One Tab

Intro:

e|---------------------------------------------------------------------------|
b|---------------------------------------------------------------------------|
g|----------------------------------------------------------------------0----|
D|------4-----0--------4---------0---------4-----0----------4-------0--------|
A|---2-----2----------------------------2-----2------------------------------|
E|---------------3---------3--------------------------3---------3------------|

e|----------------------------------------------------------------|
b|----------------------------------------------------------------|
g|----------------------------------------------------------------|
D|----4------0--------4-----0---------4---------0-----------------|
A|-2-----2---------0-----0-------------------------------2-----2--|
E|------------------------------3---------3-----------0-----2-----|

e|-------------------------|
b|-------------------------|
g|-------------------------|
D|-------------------------|
A|----2-----2-----2-2h4-2--|
E|-0-----2-----0-----------|


(intro solo)

                                        x2
e|----------------------------------------|
b|----------------------------------------|
g|----------------------------------------|
D|----4-----0-0-4--0------4-----0--4-4-0--|
A|-2-----2--------------------------------|
E|---------------------3-----3------------|

e|-----------------------------------------------------------|
b|-----------------------------------------------------------|
g|------------------------------------0----------------------|
D|----4-----0-0-4--0-----4-----0--4-4--------4-----0-0-4--0--|
A|-2-----2------------0-----0--------------------------------|
E|----------------------------------------3-----3------------|

e|-----------------------------------|
b|-----------------------------------|
g|-----------------------------------|
D|----2h4~-2---------------0---------|
A|---------------4------5---------7--|
E|-0----------2------3--------3-5----|

e|------------------------------------------|
b|-------------------------0h3p0---0h3p0----|
g|-------0-7-----0------4--------4-------0--|
D|----7-------7------5----------------------|
A|-5----------------------------------------|
E|------------------------------------------|

e|-------------------------0----|
b|-----------------------0---0--|
g|------0-10----0------0--------|
D|---10------10------9----------|
A|-8---------------7------------|
E|------------------------------|

e|------------------------------------------|
b|-------------------------0h3p0---0h3p0----|
g|-------0-7-----0------4--------4-------0--|
D|----7-------7------5----------------------|
A|-5----------------------------------------|
E|------------------------------------------|

e|------------------------------|
b|-----------------------0------|
g|------0-10----0------0--------|
D|---10------10------9----------|
A|-8---------------7--------/3--|
E|------------------------------|



Intro solo:

e|-------------------------------------------|
b|-----------------3p2-----3p2-----3-3p2-----|
g|------2-4b6r4~-------4-------2---------4~--|
D|-2h4---------------------------------------|
A|-------------------------------------------|
E|-------------------------------------------|

e|--------------------------------------------------------------------|
b|----------------------------------------2h3-2~------2-3p2-----------|
g|-11p9\7--9p7\6--7p6\4--6p4\2--/4~~---/4----------/4-------2-/4~~----|
D|--------------------------------------------------------------------|
A|--------------------------------------------------------------------|
E|--------------------------------------------------------------------|
 
e|-----14-19--17p15----15------|
b|---15-------------19----15~--|
g|-16--------------------------|
D|-----------------------------|
A|-----------------------------|
E|-----------------------------|

e|-----------------------------------|
b|-----------------------------------|
g|-7p6-7--9p7-9--11p9-11--/12-12-11--|
D|-----------------------------------|
A|-----------------------------------|
E|-----------------------------------|
                                                                  
e|-----------------------------------------------------------------------|
b|------------------------12--------12-14-15-/17-15-14-12-14-14--15-12~--|
g|-----11-12-14------11-12--------11-------------------------------------|
D|---12------------12-----------12---------------------------------------|
A|-14------------14-----------14-----------------------------------------|
E|-----------------------------------------------------------------------|


Refren:

e|--------------------------------------------------|
b|--------------------------------------------------|
g|--------------------------------------------------|
D|-----------------------4---2---4--6--4--2---------|
A|---5---7--9--7--5---4--2---0---2--4--2--0--3--4---|
E|---3---5--7--5--3---2-----------------------------|




e|----------------------------------------|
b|----------------------------------------|
g|---9----7--9/12--12------4----4-4--5----|
D|----------------------------------------|
A|---7----5--7/10--10------2----2-2--3----|
E|----------------------------------------|


e|---------------------------------------|
b|---------------------------------------|
g|---9----7--9/12--12------8---8-8--9----|
D|---------------------------------------|
A|---7----5--7/10--10------6---6-6--7----|
E|---------------------------------------|


e|----------------------------------------|
b|----------------------------------------|
g|---9----7--9/12--12------4----4-4--5----|
D|----------------------------------------|
A|---7----5--7/10--10------2----2-2--3----|
E|----------------------------------------|


e|------------------------------------------|
b|------------------------------------------|
g|---9----7--9/12--12-----11---11-11--12----|
D|------------------------------------------|
A|---7----5--7/10--10------9----9--9--10----|
E|------------------------------------------|

Taby i akordy do One - Metallica . Znajdź najlepsze gitarowe chwyty do One. Zagraj Metallica One chords.

Skomentuj Metallica - One Tab
  • (will not be published)