Home » Tabulatury i chwyty » M » Metallica » Phantom Lord

Metallica - Phantom Lord Tab


Intro:

|---------------------------------------------------------------------|
|---------------------------------------------------------------------|
|-2----2--2----2--2--2----2--2----2----4----4--4----4--4--4----4--4---|
|-2----2--2----2--2--2----2--2----2----4----4--4----4--4--4----4--4---|
|-0----0--0----0--0--0----0--0----0----2----2--2----2--2--2----2--2---|
|---------------------------------------------------------------------|

Główny riff:

|------------------------|---------------------|
|------------------------|---------------------|
|*-----------------7--9--|--------------------*|
|*--7--9--9--9--9--5--7--|--7--9--9--9--9--7--*|
|---5--7--7--7--7--------|--5--7--7--7--7--5---|
|------------------------|---------------------|

Zwrotka:

|--------------------------|
|--------------------------|
|---2~~------5----4--------|
|---2~~------5----4--5--4--|
|---0~~------3----2--5--4--|
|--------------------3--2--|

Refren:

"Hear the cry of war..."               "To control the land!"
|--------------------------|          |--------------------------|
|--------------------------|          |--------------------------|
|--------------------------| 3x       |--------------------------|
|---7--5--7--4--5----------|          |---7--5--4--5--4----------|
|---7--5--7--4--5----------|          |---7--5--4--5--4----------|
|---5--3--5--2--3----------|          |---5--3--2--3--2----------|

Taby i akordy do Phantom Lord - Metallica . Znajdź najlepsze gitarowe chwyty do Phantom Lord. Zagraj Metallica Phantom Lord chords.

Skomentuj Metallica - Phantom Lord Tab
  • (will not be published)