Home » Tabulatury i chwyty » M » Metallica » Seek And Destroy

Metallica - Seek And Destroy Tab


Intro:

|---------------------------|--------------------------|
|---------------------------|--------------------------|
|--------7^8--7-------------|---------------------5----|
|--------------------7^8--7-|-(7)-----------5--------7-|
|-0---0-----------0---------|------0--8--7-----7-------|
|---------------------------|--------------------------|

|-------------------------|
|-9--7-----7--------------|
|-------9-----9--8--7-\-5-|
|-------------------------|
|-------------------------|
|-------------------------|

Riff 1:

|------------------------|------------------------|
|------------------------|------------------------|
|------------------------|------------------------|
|-------------5--7--5--7-|------------------------|
|-------------5--7--5--7-|-------------7--5-------|
|-0--0--0--0-------------|-0--0--0--0--------7--6-|


Zwrotka:

|------------------------|------------------------|
|------------------------|------------------------|
|------------------------|------------------------|
|------------------------|-------------------5----|
|------------------------|----------------------7-|
|-0--0--0--0--0--0--0--0-|-0--0--0--0--7--6-------|


Przejście/refren:

|---------------------|---------------------|
|---------------------|---------------------|
|-5-----------5--7--5-|-5-----------5--7--5-|
|-5-----------5--7--5-|-5-----------5--7--5-|
|-3--0--0--0--3--5--3-|-3--0--0--0--3--5--3-|
|---------------------|---------------------|

|------------------------|
|------------------------|
|-7--5-------------------|
|-------7--6--5----------|
|----------------7--6--5-|
|------------------------|

|-------------|---------------|
|-------------|---------------|
|-12----------|-11-----10-----|
|-12----------|-11-----10-----|
|-10----------|--9------8-----|
|-------------|---------------|

|------------------------|------------------------|
|------------------------|------------------------|
|------------------------|------------------------|
|------------------------|------------------------|
|------------------------|------------------------|
|------------------------|------------------------|
|-0--0--0--0--0--0--0--0-|-0--0--0--0--0--0--0--0-|

Taby i akordy do Seek And Destroy - Metallica . Znajdź najlepsze gitarowe chwyty do Seek And Destroy. Zagraj Metallica Seek And Destroy chords.

Skomentuj Metallica - Seek And Destroy Tab
  • (will not be published)