Home » Tabulatury i chwyty » M » Metallica » So What

Metallica - So What Tab


Intro/zwrotka:

|-----------|-----------|---------|-----------|
|-----------|-----------|---------|-----------|
|-----------|-----------|---------|-----------|
|-5\7-7-7-7-|-5\7-7-7-7-|-5-7-5-7-|-5\7-7-7-7-|
|-5\7-7-7-7-|-5\7-7-7-7-|-5-7-5-7-|-5\7-7-7-7-|
|-3\5-5-5-5-|-3\5-5-5-5-|-3-5-3-5-|-3\5-5-5-5-|


|----------|----------|----------|----------|           
|----------|----------|----------|----------|            
|-5\7777777|-77777777-|-77777777-|-77777777-|            
|-5\7777777|-77777777-|-77777777-|-77777777-|            
|-3\5555555|-55555555-|-55555555-|-55555555-|            
|----------|----------|----------|----------|

Refren:

|----------|----------|-----------|-----------|          
|----------|----------|-----------|-----------|          
|----------|-----2----|-----------|-----------|          
|-----2----|---2---2--|-5\7-7-7-7-|-5\7-7-7-7-|          
|---2---2--|-1--------|-5\7-7-7-7-|-5\7-7-7-7-|          
|-1--------|----------|-3\5-5-5-5-|-3\5-5-5-5-|          
|          |          |           |           |          
   
|----------|-6--------|-----------|-----------|          
|-----6----|---6------|-----------|-----------|          
|---5---5--|-----3----|-----------|-----------|          
|-3--------|-------3--|-----------|-----------|          
|----------|----------|-----------|-----------|          
|----------|----------|-----------|-----------| 

Taby i akordy do So What - Metallica . Znajdź najlepsze gitarowe chwyty do So What. Zagraj Metallica So What chords.

Skomentuj Metallica - So What Tab
  • (will not be published)