Home » Tabulatury i chwyty » M » Metallica » The Four Horsemen

Metallica - The Four Horsemen Tab



Intro/zwrotka:

E|-----------||---------------------------------------------------------------|
B|-----------||---------------------------------------------------------------|
G|-----------||---------------------------------------------------------------|
D|--5---7-5--||----------------------------------------------------------5h7--|
A|--3-5-5-3--||--7p5-7p5-7p5-7p5-7p5-7p5-7p5-----7p5-7p5-7p5-7p5-----5h7------|
E|----3------||--0---0---0---0---0---0---0---7-6-0---0---0---0---7-6----------|

E|---------------------------||-------||-------||----------------|
B|---------------------------||-------||-------||----------------|
G|---------------------------||-------||-------||----------------|
D|--------9-------9-------9--||--7-7--||--5-7--||--12-9-5---7-5--|
A|--------7-------7-------7--||--5-5--||--3-5--||--10-7-3-5-5-3--|
E|--0-0-0---0-0-0---0-0-0----||-------||-------||---------3------|

Refren:

E|-------------------------------------|
B|-------------------------------------|
G|-------------------------------------|
D|--9-9-7-7-5-5-4-----9-9-7-7-4-5-4-5--|
A|--7-7-5-5-3-3-2--*--7-7-5-5-2-3-2-3--|
E|-----------------*-------------------|

Bridge:

E|-------------------------------------------------|
B|-------------------------------------------------|
G|-------------------------------------------------|
D|-----------------------10/9-9-------------10-10--|
A|------------------------8/7-9--------------8--8--|
E|--0-0-0-0-0-0-0-0-0-0---------0-0-0-0-0-0--------|
    . . . . . . . . . .         . . . . . .
E|-------------------------------------------------|
B|-------------------------------------------------|
G|-------------------------------------------------|
D|-------------------------------------------------|
A|--7-5---5----------------------7-5---5-----------|
E|------7---7-5-7-5-3-5-3-0--5-3-----7---7-5-7-----|

E|------------------------------------------------|
B|------------------------------------------------|
G|------------------------------------------------|
D|--5-6-7----------3-2-0-2-------5---6---7--------|
A|--3-4-5------0-2---------------3---4---5--------|
E|---------0-0-------------0-0-0---0---0----------|

E|------------------------------------------------|
B|------------------------------------------------|
G|------4---------2---------4----------2----------|
D|--2-2---2---------2---------2----------2--------|
A|----------2-5-5-----5-3-3-----3-2-2------2------|
E|------------------------------------------------|

Taby i akordy do The Four Horsemen - Metallica . Znajdź najlepsze gitarowe chwyty do The Four Horsemen. Zagraj Metallica The Four Horsemen chords.

Skomentuj Metallica - The Four Horsemen Tab
  • (will not be published)