Home » Tabulatury i chwyty » M » Metallica » Through The Never

Metallica - Through The Never Tab


Intro:

||-------------------||--------------||------------------|------------------|
||o-----------------o||--------------||o-----------------|------------------|
||-------------------||--------------||------------------|------------------|
||-------------------||--------------||------------------|------------------|
||o-----4-------4---o||-2-2-------5--||o-----4-------3---|-----4-------3----|
||--0-2---2-0-2---2--||-0-0-------3--||--0-2---2-0-2---2-|-0-2---2-0-2---2--|


Zwrotka/przejście:

|----------------|-----------------|---------------|-----------------|
|----------------|-----------------|---------------|-----------------|
|----------------|-----------------|---2------3----|-2-3-2-0---------|
|-2--------------|-----------------|---2------3----|---------3-2-0-2-|
|-2--------------|-----------------|---------------|-----------------|
|-0--0-0-0-0-0-0-|-0-0-0-0-0-0-0-0-|-0-------------|-----------------|

|-----------------|-----------------|-----------------|-----------------|
|-----------------|-----------------|-----------------|-----------------|
|-----------------|-----------------|-----------------|-----------------|
|-3p2-------------|-----------------|-----------------|-----------------|
|-----------------|-----------------|-----------------|-----------------|
|-----0-0-0-0-0-0-|-0-0-0-0-0-0-0-0-|-0-0-0-0-0-0-0-0-|-0-0-0-0-0-0-0-0-|

|-----------------|-----------------|---------------|-----------------|
|-----------------|-----------------|---------------|-----------------|
|-----------------|-----------------|---2------3----|-----------------|
|-----------------|-----------------|---2------3----|-2---------------|
|-----------------|-----------------|---------------|-2---------------|
|-0-0-0-0-0-0-0-0-|-0-0-0-0-0-0-0-0-|-0-------------|-0-0-0-0-0-0-0-0-|

|-----------------|-----------------|-----------------|-----------------|
|-----------------|-----------------|-----------------|-----------------|
|-----------------|-----------------|-----------------|-----------------|
|-----------------|-----------------|-----------------|-----------------|
|-----------------|-----------------|-----------------|-----------------|
|-0-0-0-0-0-0-0-0-|-3-3-3-3-3-3-3-3-|-3-3-3-3-3-3-3-3-|-2-2-2-2-2-2-2-2-|

|----------------|---------------|-----------------||-----------------|
|----------------|---------------|-----------------||-----------------|
|----------------|---2------3----|-2-3-2-0---------||-----------------|
|----------------|---2------3----|---------3-2-0-2-||-----------------|
|-------4-(4)----|---------------|-----------------||-----4-------3---|
|-2-2-2-2-(2)----|---------------|-----------------||-0-2---2-0-2---2-|



Refren:

|-----------------||----------------|------------------|
|-----------------||----------------|------------------|
|-----------------||----------------|------------------|
|-----------------||----------------|------------------|
|-----4-------3---||-2s4-----4------|-2s4-----4--------|
|-0-2---2-0-2---2-||-0s2-2-2-2--2-2-|-0s2-2-2-2--2-2---|

|-----------------||
|-----------------||
|-----------------||
|-4---------------||
|-----4---3---2---||
|-----------------||

Taby i akordy do Through The Never - Metallica . Znajdź najlepsze gitarowe chwyty do Through The Never. Zagraj Metallica Through The Never chords.

Skomentuj Metallica - Through The Never Tab
  • (will not be published)