Home » Tabulatury i chwyty » M » Metallica » Trapped Under Ice

Metallica - Trapped Under Ice Tab



Intro:


|---------------------------------------------------------------------------------|
|---------------------------------------------------------------------------------|
|----------5-----9---------------5------------------------------------------------|
|----------5-----9---------------5-----5-----------5--5-5--5----------------------|
|----------7-----7---------------3-----5-----------5--5-5--5----------------------|
|--0-0---------------------0-0---------3-----------3--3-3--3----------------------|

|---------------------------------------------------------------------------------|
|---------------------------------------------------------------------------------|
|--------5---9-------------5----------10-10-10------------------------------------|
|--------5---9-------------5----5-----10-10-10---or-------------------------------|
|--------7---7-------------7----5------8--8--8-------8-8-8------------------------|
|--0-0--------------0-0---------3--------------------8-8-8------------------------|


Refren:

|---------------------------------------------------------------------------------|
|---------------------------------------------------------------------------------|
|---------------------------------------------------------------------------------|
|------6--7-----9--9-x--9-----6--7-------9---9-x-9--------------------------------|
|------6--7-----9--9-x--9-----6--7-------9---9-x-9--------------------------------|
|------4--5-----7--7-x--7-----4--5-------7---7-x-7--------------------------------|

|-----------------------------------------|
|-----------------------------------------|
|-----------------------------------------|
|--4--5----7-7-x-7-------6--7---9-9--x-9--|
|--4--5----7-7-x-7-------6--7---9-9--x-9--|
|--2--3----5-5-x-5-------4--5---7-7--x-7--|


Zwrotka:

|---------------------------------------------------------------------------------|
|-----------------------2---------------------------------------------------------|
|-----------------------2---------------------------------------------------------|
|-----------------------2------------3-2------------------------------------------|
|-----------------------0---3-0-2-0-------3-0-------------------------------------|
|---0-0-0-0-0-0-3-0-2-0-----------------------------------------------------------|

|---------------------------------------------------------------------------------|
|-------------------------2-------------------------------------------------------|
|-------------------------2-------------------------------------------------------|
|-------------------------2-------------------------------------------------------|
|-------------------------0-------000000000000000000000000000---------------------|
|---0-0-0-0-0-0-0-3-0-2-0---------------------------------------------------------|

|---------------------------------------------------------------------------------|
|---------------------------------------------------------------------------------|
|----9-9-9---7--7--7--------------------------------------------------------------|
|----9-9-9---7--7--7---9--9-9-----------------------------------------------------|
|----7-7-7---5--5--5---9--9-9-----------------------------------------------------|
|----------------------7--7-7----3-2-0--------------------------------------------|

|---------------------------------------------------------------------------------|
|---------------------------------------------------------------------------------|
|--9-9-9--7-7-7-------------------------------------------------------------------|
|--9-9-9--7-7-7----7--7--7--------------------------------------------------------|
|--7-7-7--5-5-5----7--7--7--------------------------------------------------------|
|------------------5--5--5---3-2-0------------------------------------------------|


Przejście:


|---------------------------------------------------------------------------------|
|---------------------------------------------------------------------------------|
|---------------------------------------------------------------------------------|
|---7---9---7---------9------7------4---------------------------------------------|
|---7---9---7---------9------7------4---------------------------------------------|
|---5---7---5------0--7--0---5---0--2---------------------------------------------|

Taby i akordy do Trapped Under Ice - Metallica . Znajdź najlepsze gitarowe chwyty do Trapped Under Ice. Zagraj Metallica Trapped Under Ice chords.

Skomentuj Metallica - Trapped Under Ice Tab
  • (will not be published)