Home » Tabulatury i chwyty » M » Metallica » Until It Sleeps

Metallica - Until It Sleeps Bas Tab



Bass intro:

 G:-------------------------------------
 D:-------------------------------------
 A:-------3-2----------3-2--------------
 E:-5----------3--5----------0--1/5-----

Zwrotka:

 e:--------------------------5---
 B:------5-------------------5---
 G:---------7--5-------------x---
 D:----------------9--7--5---x---
 A:-0-0----------------------5---
 E:--------------------------5---


Refren:

 e:----------------------------------
 B:----------------------------------
 G:----------------------------------
 D:----------------------------------
 A:-7-7-7-7-7-7-7-7-5-5-5-5-3-3-3-3--
 E:-5-5-5-5-5-5-5-5-3-3-3-3-1-1-1-1--


Bridge:
 e:--------------------------------
 B:------5-------------------------
 G:---------7--5------5-----3------
 D:-------------------5-----3------
 A:-0-0---------------5-----3----0-
 E:----------------3-----1---------


 e:---------------------------------------------
 B:---------------------------------------------
 G:---------------------------------------------
 D:-9-9-9-9-9-9-9-7-7-7-7-5-5-5-5-5-5-5-5-5-7-7-
 A:-7-7-7-7-7-7-7-5-5-5-5-3-3-3-3-3-3-3-3-3-5-5-
 E:---------------------------------------------


Riff końcowy:

Bass

G:----------------------------------------
D:---------------------------------------- 
A:-------3-2------------------------------   
E:-5----------3--5----1/3--1--------------   

Gitara

e:----------------------------------5-----                            
B:----------------------------------5-----                            
G:----------------------------------x-----                 
D:----------------------------------x-----   
A:-----------------------------5----5-----   
E:---------------------------5---5--5-----

Taby i akordy do Until It Sleeps - Metallica . Znajdź najlepsze gitarowe chwyty do Until It Sleeps. Zagraj Metallica Until It Sleeps chords.

Skomentuj Metallica - Until It Sleeps Bas Tab
  • (will not be published)