Home » Tabulatury i chwyty » M » Misfits » All Hell Breaks Loose

Misfits - All Hell Breaks Loose Tab


E|-------------------------------------------------------|
H|-------------------------------------------------------|
G|-------------------------------------------------------|    x4
D|-----7-7-7-7----10-10-10-10----------------------------|
A|-----5-5-5-5----8--8--8--8----10-10-10-10---8-8-8-8----|
E|------------------------------8--8--8--8----6-6-6-6----|

E|-----------------------------------|
H|-----------------------------------|
G|-----------------------------------|
D|----7-7-7-7-------------5-5-5-5----|
A|----5-5-5-5---5-5-5-5---3-3-3-3----|
E|--------------3-3-3-3--------------|

E|-----------------------------|
H|-----------------------------|
G|-----------------------------|
D|------7-----------10---------|
A|------5-----5-----8----------|
E|------------3----------------|




Taby i akordy do All Hell Breaks Loose - Misfits . Znajdź najlepsze gitarowe chwyty do All Hell Breaks Loose. Zagraj Misfits All Hell Breaks Loose chords.

Zobacz inne opracowania Misfits
Skomentuj Misfits - All Hell Breaks Loose Tab
  • (will not be published)