Home » Tabulatury i chwyty » N » Neil Young » Rockin In The Free World

Neil Young - Rockin In The Free World Tab

Zwrotka:

E|---------------------------------|---------------------------|
B|---------------------------------|---------------------------|
G|---------------------------------|-7----7---5----5---5---5---|
D|-2---2---2---2---2---2---2---2---|-7----7---5----5---5---5---|
A|-2---2---2---2---2---2---2---2---|-5----5---3----3---3---3---|
E|-0---0---0---0---0---0---0---0---|---------------------------|



Refren:

E|--------|--------|--------|-------------------------|
B|--------|--------|--------|-------------------------|
G|--------|-7------|-5------|-5---0-------------------|
D|-5------|-7------|-5------|-5---0----2------2---5---|
A|-5------|-5------|-3------|-3---0----2------2---5---|
E|-3------|--------|--------|----------0------0---3---|

Taby i akordy do Rockin In The Free World - Neil Young . Znajdź najlepsze gitarowe chwyty do Rockin In The Free World. Zagraj Neil Young Rockin In The Free World chords.

Skomentuj Neil Young - Rockin In The Free World Tab
  • (will not be published)